» » »

Montgomery Gentry - I Ain't Got It All That Bad Tabs

Artists:  A B C D E F G H I J K L M N O P Q R S T U V W X Y Z # 

I Ain't Got It All That Bad Tabs

(ver. 1) Click to play this song!
Montgomery Gentry
 Rating:
4/5 (4 votes)

 I Ain't Got It All That Bad lessons Tabs too difficult? Try these video lessons and learn fast
 
                
/ - Slide
*^ - Pre-bend(bend note before picking and release after)
^ - normal bend


e|-------------------------|-----------------------------|
B|/10-10-------------------|-----------------------------|
G|-------*^9---9-7-9-9-^9^9|-*^9-^9p7-7---7-9-/11-9-/7-7-|
D|-------------------------|------------9----------------|
A|-------------------------|-----------------------------|
E|-------------------------|-----------------------------|

e|----------------------------|
B|----------------------------|
G|----------------------------|
D|9p7-9p7--7------------7h9-9-|
A|-----------9-7-/5-7-/9------|
E|----------------------------|

e|---------------------------------|
B|------/15-14-^10-^10--10-12-13-13|
G|7-7-7----------------------------|
D|---------------------------------|
A|---------------------------------|
E|---------------------------------|

e|-----------------------7--------------------------------|
B|----^15--^10---------7---10p7-^9---7~~~~----------------|
G|------------------^9-------------9----------------------|
D|--------------------------------------------------------|
A|--------------------------------------------------------|
E|--------------------------------------------------------|
            
Submit corrections


        I Ain't Got It All That Bad lessons Hard to play? Try these video lessons and learn fast I Ain't Got It All That Bad lessons
        
↑ Back to top | Tablatures and chords for acoustic guitar and electric guitar, ukulele, drums are parodies/interpretations of the original songs. You may use it for private study, scholarship, research or language learning purposes only