» » »

Montgomery Gentry - Hillbilly Shoes Revised Tabs

Artists:  A B C D E F G H I J K L M N O P Q R S T U V W X Y Z # 

Hillbilly Shoes Revised Tabs

(ver. 1) Click to play this song!
Montgomery Gentry
 Rating:
4/5 (4 votes)

 Hillbilly Shoes Revised lessons Tabs too difficult? Try these video lessons and learn fast
 
                h= hammer on            br= bend & release
po= pull off            / \= slide up & slide dn
b= bend                 x=   muted click
brh= bend release hold

                 Hillbilly Shoes       
     Intro and lead part played along w/ fiddle

     Drop D tuning= DADGBE

e----------------------------------------------------------
b----------------------------------------------------------
g----------------------------------------------------------
d------0-3po----------0-3po----------0-3po-----------------
a--3h5-------5po--3h5-------5po--3h5-------5po-3po---------
e--------------------------------------------------2br-0---

e----------------------------------------------------------
b----------------------------------------------------------
g----------------------------------------------------------
d-------0-3po----------5-3po----------0-3po----------------
a-0-3h5-------5po--3h5-------5po--3h5-------5po-3po--------
e---------------------------------------------------2br-0--

       This is The part played along w/ the fiddle

e----------------------------------------------------------
b----------------------------------------------------------
g----------------------------------------------------------
d--5/7--5--3po--5/7--5--3brh--5/7--5--3po------------------
a-----------------------------------------5po--3po---------
e--------------------------------------------------2br-0---

e----------------------------------------------------------
b----------------------------------------------------------
g----------------------------------------------------------
d--5/7--5--3po--5/7--5--3brh--5/7--5--3po------------------
a-----------------------------------------5po--3po---------
e--------------------------------------------------2br-0---
            
Submit corrections


        Hillbilly Shoes Revised lessons Hard to play? Try these video lessons and learn fast Hillbilly Shoes Revised lessons
        
↑ Back to top | Tablatures and chords for acoustic guitar and electric guitar, ukulele, drums are parodies/interpretations of the original songs. You may use it for private study, scholarship, research or language learning purposes only