» » »

Montgomery Gentry - Good Clean Fun (lead/intro) Tabs

Artists:  A B C D E F G H I J K L M N O P Q R S T U V W X Y Z # 

Good Clean Fun (lead/intro) Tabs

(ver. 1) Click to play this song!
Montgomery Gentry
 Rating:
4/5 (4 votes)

 Good Clean Fun (lead/intro) lessons Tabs too difficult? Try these video lessons and learn fast
 
                Good Clean Fun by Montgomery Gentry (Lead/Intro)



 E---------------------------------------------|
 B-4/6-4-----------4---------4/6-4-------------|
 G-------5-0-3-5-0---5p3p0---------5-0-3-5-----|
 D---------------------------------------------|
 A---------------------------------------------|
 E---------------------------------------------|


 E---------------------------------------------|
 B-4/6-4-----------4---------4/6-4-------------|
 G-------5-0-3-5-0---5p3p0---------5-3-0-3h5---|
 D---------------------------------------------|
 A---------------------------------------------|
 E---------------------------------------------|


 E---------------------------------------------|
 B-4/6-4-----------4---------4/6-4-------------|
 G-------5-0-3-5-0---5p3p0---------5-0-3-5-----|
 D---------------------------------------------|
 A---------------------------------------------|
 E---------------------------------------------|


 E---------------------------------------------|
 B-4/6-4-----------4---------4/6-4-------------|
 G-------5-0-3-5-0---5p3p0---------5-3-----3/5-|
 D-------------------------------------5-3-----|
 A---------------------------------------------|
 E---------------------------------------------|
            
Submit corrections


        Good Clean Fun (lead/intro) lessons Hard to play? Try these video lessons and learn fast Good Clean Fun (lead/intro) lessons
        
↑ Back to top | Tablatures and chords for acoustic guitar and electric guitar, ukulele, drums are parodies/interpretations of the original songs. You may use it for private study, scholarship, research or language learning purposes only