» » »

Montgomery Gentry - Good Clean Fun Tabs

Artists:  A B C D E F G H I J K L M N O P Q R S T U V W X Y Z # 

Good Clean Fun Tabs

(ver. 1) Click to play this song!
Montgomery Gentry
 Rating:
4/5 (4 votes)

 Good Clean Fun lessons Tabs too difficult? Try these video lessons and learn fast
 
                Montgomery Gentry  -  Good Clean Fun (lead)



*************************************************************************************

\   =  slide down                                     b   =   bend

/   =  slide up                                       x   =   dead note

bh  =  bend & hold                                    r   =   release bend

p   =  pulloff                                        h   =   hammer-on

br  =  bend & release                                 ~   =   vibrato

*************************************************************************************



INTRO TO SOLO (including slide part)             

E--------------------------------------------------------------------------
B---------------------11b/\---------------------------10-11-10-11-13-11-13-
G---------------8-10b----------------------------10-12---------------------
D--10\8--8----10--------------------8--8-10-12-13--------------------------
A------10---10---------------10-8-10-10------------------------------------
E--------------------------------------------------------------------------

              1ST SOLO

E--10-11-13---13b--13b-13b-13b-13b-12b-11--------------------
B----------13----------------------------13--11--------------
G------------------------------------------12--12\10-8-------
D-----------------------------------------------------10-10--
A------------------------------------------------------------
E------------------------------------------------------------

                                                       1+1/2 step bends
   rake                                        rake
E-------8---8-6----1-------------------------------------------------------------
B----10b-8bh-8-\3bh-3r-p1------------------------11-13-13b-13b-13b-13b-13br-11/--
G---x--------------------3-0h3-2p0---0----------x--------------------------------
D--x----------------------3-------3p0-3p0-3-/--x---------------------------------
A----------------------------------------3---------------------------------------
E--------------------------------------------------------------------------------


E-------15/18-15-----------------------------------13-----13--------------------|
B--16b----------18-16b-18-16-18-16b-18-16b-18-16-13--16-13--16-13---------------|
G----------------------------------------------------------------15-------------|
D------------------------------------------------------------------17\15-13-----|
A--------------------------------------------------------------------------15---|
E-------------------------------------------------------------------------------|

   2ND SOLO
                              1+1/2step                             
                                         rake
E-------13---13-13h15-------------------------------------------16br-13-15------
B-----13--16b--------16--13--16-16br~~\----9b-8-7-6---6b----p0------------16p13-
G--15b---------------------15-------------x--------8p5--5~~/p0------------------
D----------------------------------------x--------------------------------------
A-------------------------------------------------------------------------------
E-------------------------------------------------------------------------------

                                                                rake  rake
E-------13--13----------------------------------------------------14b---16br-13-
B--16/20--16--16-13--14b-14br---------13-16p13--16p13--13-16-13--x-----x--------
G------------------15---------15-12h14--------15-----15---------x-----x---------
D-------------------------------------------------------------------------------
A-------------------------------------------------------------------------------
E-------------------------------------------------------------------------------

   rake       rake
E--------------------------------------------------------------|
B----16br-13----13br-------------------------11----------------|
G---x----------x----10\/---8-10br-p8--10br-bh--10r-p8~~~/20\---|
D--x----------x----------10---------10-------------------------|
A--------------------------------------------------------------|
E--------------------------------------------------------------|




            
Submit corrections


        Good Clean Fun lessons Hard to play? Try these video lessons and learn fast Good Clean Fun lessons
        
↑ Back to top | Tablatures and chords for acoustic guitar and electric guitar, ukulele, drums are parodies/interpretations of the original songs. You may use it for private study, scholarship, research or language learning purposes only