» » »

Montgomery Gentry - All Night Long Tabs

Artists:  A B C D E F G H I J K L M N O P Q R S T U V W X Y Z # 

All Night Long Tabs

(ver. 1) Click to play this song!
Montgomery Gentry
 Rating:
4/5 (4 votes)

 All Night Long lessons Tabs too difficult? Try these video lessons and learn fast
 
                Montgomery Gentry - All Night Long (lead)


The parts of this song which are played by 2 guitars, I have tabbed so
they can be played by just one. (Mainly the intro and end of 2nd solo)

***********************************************************************

b   =   bend                                      ~   =   vibrato

br  =   bend & release                            \   =   slide down

/   =   slide up                                  p   =   pulloff

x   =   dead note                                 bh  =   bend & hold

r   =   release bend                              h   =   hammer-on

***********************************************************************


INTRO


E----------------------------------------------------------
B--5b~~~5br-3-5-3---------3\---5b~~~5br-3-5-3---------3/---
G--5b~~~5br-3-5-3-4-2-4~~-3\---5b~~~5br-3-5-3-4-2-4~~-3/---
D-----------------5-3-5~~---------------------5-3-5~~------
A----------------------------------------------------------
E----------------------------------------------------------


E-------------------------------------------------------------------
B--5b~~~5br-3-5-3----------5br-3-5-3---------------5br-3-5-3--------
G--5b~~~5br-3-5-3-4-2-4~~~-5br-3-5-3-4-2-4--2-3-4--5br-3-5-3-4-2-4--
D-----------------5-3-5--------------5-3-5--3-4-5------------5-3-5--
A-------------------------------------------------------------------
E-------------------------------------------------------------------


E---------------------------------------------------------
B---------5br-3-5-3---------------5br-3-5-3---------------
G--2-3-4--5br-3-5-3-4-2-3--1-2-3--5br-3-5-3-4-2-4--2-3-4--
D--3-4-5------------5-3-5--3-4-5------------5-3-5--3-4-5--
A---------------------------------------------------------
E---------------------------------------------------------


E------------------------------------------------------------
B--5br-3-5-3---------------------------------8b-8------------
G--5br-3-5-3-4-2----3-3-5-3-5b-5b-5-3-----3-5----5br-3-5-----
D------------5-3-5-5-5---------------5-3-5--------------3-5--
A------------------------------------------------------------
E------------------------------------------------------------


E------------------------|
B--5br-------------------|
G--5br-3-5-3-------------|
D-----------5-3-5~~~~~---|
A------------------------|
E------------------------|



1ST SOLO (after 'awwwww guitar')

                       rake
E--13br-p10-13-13b~~~\-----15-----------------------------------
B------------------------15--18---------------------------------
G-----------------------x------17b-17-15-17-15b-----------------
D----------------------x-----------------------17p15--15-17~~\--
A---------------------------------------------------17----------
E---------------------------------------------------------------


E----------------------------------------------------------------
B--15-15b-15-15b-15-15b-15-15b-15-15b-15-15b---------------------
G--15-15b-15-15b-15-15b-15-15b-15-15b-15-15b---------------------
D--------------------------------------------17p15--15-17-17~~\--
A-------------------------------------------------17-------------
E----------------------------------------------------------------

  Sounds like a slide, but scoop the first note of each pulloff with
  bar for the same effect.

E---------------------------------------------------------------------
B---------------------------------------------------------------11-13-
G--0-5p3p0-6p4p0-7p5p0-8p6p0-9p7p0-10p8p0-11p9p0-12p10p0-10-12-0------
D---------------------------------------------------------------------
A---------------------------------------------------------------------
E---------------------------------------------------------------------


E---13/15-13----------------------|
B-----------13br-11-13------------|
G--0------------------10-12~~~\---|
D---------------------------------|
A---------------------------------|
E---------------------------------|



2ND SOLO (after fiddle solo)


E-----------------------------------3---------------------------------
B--5br-p3-5bh-5-5-5-5-5-5r-----------6p3-3--------------------5-3-5-3-
G--5br-p3-5bh-5-5-5-5-5-5r-p3h5p3-5b----6-6p5p3-3----3b-------5-3-5-3-
D----------------------------------------------5-5p3---5-----5-5-5-5--
A---------------------------------------------------5-----5/7---------
E---------------------------------------------------------------------


E-----------------------------3----------------------------------------
B--5bh-5r-p3-3-----------------6p3-3------------5-3b--5bh-5-5-5-5-5-5r-
G--5bh-5r-p3-3------------3-5b----6-6p5p3-3-5p3-5-3b--5bh-5-5-5-5-5-5r-
D-----------5--------3-3h5---------------5-----5----5------------------
A---------------3h4h5--------------------------------------------------
E----------------------------------------------------------------------


E-------------3---------------------------------------------------
B--3-5-3b------6p3-3-----------3------------------5br-p3-5-3b-----
G--3-5-3b-3-5b----6-6p5p3-3------3b---3-4--2-3-4--5br-p3-5-3b-----
D----------5-------------5-5p3-----3h5--5--3-4-5--------5----5-3--
A-----------------------------5-5---------------------------------
E-----------------------------------------------------------------


E--------------------------------------------------------------
B------------5br-p3-5-3b--------------5br-p3-5-3b--------------
G--4--2-3-4--5br-p3-5-3b----3--1-2-3--5br-p3-5-3b----4--2-3-4--
D--5--3-4-5--------5----5-3-5--3-4-5--------5----5-3-5--3-4-5--
A--------------------------------------------------------------
E--------------------------------------------------------------


E-----------------------------------------------------------------
B--5br-p3-5-3b-----5br-p3-5-3b-----5br-p3-5-3b-----5br-p3-5-3b----
G--5br-p3-5-3b-----5br-p3-5-3b-----5br-p3-5-3b-----5br-p3-5-3b----
D--------5----5-3--------5----5-3--------5----5-3--------5----5-3-
A-----------------------------------------------------------------
E-----------------------------------------------------------------


E------------------------|
B--5b-5bh-5r-3-----------|
G--5b-5bh-5r-3-----------|
D-------------5-3-5~~~---|
A------------------------|
E------------------------|


ENDING


E-----------------------------------------------5--------------------
B--7br-p5-7-5b---------------------------------5-8p5-----------7b-7b-
G--7br-p5-7-5b------7-6--------------5-5-7p5-7b-----7br-p5-7p5-7b-7b-
D--------7----7-5-7-8-7-7~~~------5h7-7------------------------------
A----------------------------5h6h7-----------------------------------
E--------------------------------------------------------------------

                w/bar   w/bar
E-----------------------------------------|
B--7b-7b-7b-7b-7b~~~~--7b~~~~\------------|
G--7b-7b-7b-7b-7b~~~~--7b~~~~\--2---------|
D-------------------------------2---------|
A-------------------------------0--x/-----|
E----------------------------------x/-----|
            
Submit corrections


        All Night Long lessons Hard to play? Try these video lessons and learn fast All Night Long lessons
        
↑ Back to top | Tablatures and chords for acoustic guitar and electric guitar, ukulele, drums are parodies/interpretations of the original songs. You may use it for private study, scholarship, research or language learning purposes only