Home » M » Monsters Of Liedermaching »

Monsters Of Liedermaching - Ich Hab Dich Lieb Tabs

Artists:  A B C D E F G H I J K L M N O P Q R S T U V W X Y Z # 

Ich Hab Dich Lieb Tabs

(ver. 1) Click to play this song!
Monsters Of Liedermaching
Rüdiger Bierhorst – Ich hab dich lieb

Intro:

(Capo 2. Bund

--D---------------G---------------Cadd9---------D-----------------------

F#-----3--2-----------3---2--------------------------3—--2-------|
C#------------3---------------3-----------1^3---------------3----|
A---2----------------------------------0----------2--------------|
E-0-----0--0---0---0-----------------2----------0----0---0---0---|
H---------------------------------3------------------------------|
F#----------------3-----3---3---3--------------------------------|


     D                                G
Ich kann sie nicht mehr hören, diese vorsichtigen Schwätzer:
   Cadd9                       D
Politiker, die Lottofee, erst recht den Wetterschätzer,
         D                                              G
wie feig ist das denn, dass heutzutag keiner mehr Garantien übernimmt!
     Cadd9                                D
Ich komm jetzt mal mit nem Satz raus, der einfach nur so stimmt:

--D---------------Em--------------G------------------D---------------------

F#-----3--2-----------3---2-----------3----2--------------3—--2-------|
C#------------3---------------3-----------------3----------------3----|
A---2---------------0-----------------------------------2-------------|
E-0-----0--0---0--------------------0----------------0-----0---0---0--|
H---------------------------------------------------------------------|
F#----------------0-----0---0---0-3-----3----3----3-------------------|

D    Em  G    D
Ich hab dich lieb.


     D                            G
Ich weiß, du diskutierst gern und alles hat zwei Seiten.
                 Cadd9                                       D
Irgend so ein Scheißphilosoph hat mal gesagt, es gibt immer mehrere Wahrheiten.
            D                                             G
Kann schon sein, dass so ein Typ wie ich immer nur an der Oberfläche kratzt,
     Cadd9                                     D
aber eins bring ich grad noch zustande und das ist ein klarer Satz:


D   Em   G    D
Ich hab dich lieb.


Em
      Sag da einer mal was gegen.
Cadd9
      Da könnt ihr lange überlegen.
Em
      Dinge können ganz einfach sein,
Cadd9
      ich meißel das dann mal in Stein.

D   Em   G    D
Ich hab dich lieb.


D                                 G
  Du liest traurige Bücher – ich bin ein Fernsehfreak.
        Cadd9                                          D
Du gehst abends in andere Clubs als ich und hörst da grausame Musik.
        D                                        G
Deine Freundinnen finde ich doof und die halten mich für ne schlechte Partie.
         Cadd9                           D
Du lachst über die blödesten Witze, aber über meine nie.

D   Em   G    D
Ich hab dich lieb.
            
Submit corrections

↑ Back to top | Tablatures and chords for acoustic guitar and electric guitar, ukulele, drums are parodies/interpretations of the original songs. You may use it for private study, scholarship, research or language learning purposes only