Home » M » Monster Magnet »

Monster Magnet - Look To Your Orb For The Warning Bass

Artists:  A B C D E F G H I J K L M N O P Q R S T U V W X Y Z # 

Look To Your Orb For The Warning Bass

(ver. 1) Click to play this song!
Monster Magnet
h = hammer on
p = pull off
/ = slide
b = bend string up

Monster Magnet tunes down a half step for this song. But thats really a pain 
in the ass and I hate doing it, so I tabbed this out so that you only need to 
tune your E string down a half step.


Here's the riff for the intro and verse..
G|---------------------------
D|---------------------------
A|------6---4h6-6-6-6--------
D#|-0-----------------5-3-2--


Then here's the chorus..
   "An old man..."
G|-------------------
D|-------------------
A|--4---------3---1--
D#|------------------

G|------------------------
D|------------------------
A|--4--------3h4-3h4-3-1--
D#|-----------------------

G|--------------------------------
D|--------------------------------
A|--4-------4p3-3/6----6h7-7p6-6--
D#|-------------------------------

G|---------------------------------
D|---------------------------------
A|--/4------3h4-3h4-3-1------1/6/--
D#|--------------------------------


Then go back into the verse riff.
Then play the chorus again.


Then play this during the guitar solo..
G|-----------------------
D|-----------------------
A|--4h6-6-6-6---4--------
D#|----------------5--3--

G|------------------------------
D|--------------4--6--7b---6-4--
A|--4h6-6-6-6-------------------
D#|-----------------------------
Repeat the whole thing a few times.

Then play the chorus riff twice.
Then the verse riff.

Then play this four times..
G|---------------------
D|--------------3------
A|--4h6-6-6-6-----4-6--
D#|--------------------

Then play this eight times..
G|------------------------------
D|-------------4--4-4-4-4-6-6/--
A|--4h6-6-6-6-------------------
D#|-----------------------------

Then play this eight times..
G|--------------------
D|--------------------
A|--4h6-6-6-6---4--2--
D#|-------------------

Then play this while it fades out..
G|------------------------------
D|------------------------------
A|--4--6--6-6---6--6--6--6-6-6--
D#|-----------------------------


And that's it.. later.
            
Submit corrections

↑ Back to top | Tablatures and chords for acoustic guitar and electric guitar, ukulele, drums are parodies/interpretations of the original songs. You may use it for private study, scholarship, research or language learning purposes only