» » »

Monkees - No Time Chords

Artists:  A B C D E F G H I J K L M N O P Q R S T U V W X Y Z # 

No Time Chords

(ver. 2) Click to play this song!
Monkees
 Rating:
4/5 (4 votes)

 No Time lessons Tabs too difficult? Try these video lessons and learn fast
 
                This is "No Time" by the Monkees on the albu Headquarters.

E
Hober reeber sabasoben
E
Hobaseeba snick
E
Seeberraber hobosoben
E
What did you expect?

   A                 E
No time, no time for you.
      B
I got no time, baby,
    A                        E   B
Got lots of better things to do.

E
Runnin' from the risin' heat
E
To find a place to hide,
E
The grass is always greener
E
Growin' on the other side.

   A                 E
No time, no time for you
      B
I got no time, baby,
    A                        E  B
Got lots of better things to do.

  E                    E
E-12-12-12-12-12-9-7-9-12-12-12-12-12-9-7-9-|
B-12-12-12-12-12-9-7-9-12-12-12-12-12-9-7-9-|
G-------------------------------------------|
D-------------------------------------------|
A-------------------------------------------|
E-------------------------------------------|

  E           E           E
E-12-12-12-12-12-12-12-12-12---12-----------|
B-12-12-12-12-12-12-12-12-12-12b-12b--------|
G-----------------------------------13------|
D-------------------------------------14----|
A-------------------------------------------|
E-------------------------------------------|

   A                 E
No time, no time for you
         B
I got no time, baby,
    A                        E  B
Got lots of better things to do.

  E                    E
E-12-12-12-12-12-9-7-9-12-12-12-12-12-9-7-9-|
B-12-12-12-12-12-9-7-9-12-12-12-12-12-9-7-9-|
G-------------------------------------------|
D-------------------------------------------|
A-------------------------------------------|
E-------------------------------------------|

  E           E           E
E-12-12-12-12-12-12-12-12-12---12-----------|
B-12-12-12-12-12-12-12-12-12-12b-12b--------|
G-----------------------------------13------|
D-------------------------------------14----|
A-------------------------------------------|
E-------------------------------------------|

   A                 E
No time, no time for you
      B
I got no time, baby,
    A                        E  B
Got lots of better things to do.

E
Tryin' to tell the world
E
Somehow of how I feel.
E
Tell me what you said again,
E
I can't believe it's real.

   A                 E
No time, no time for you
      B
I got no time, baby,
    A                        E  B
Got lots of better things to do.

E
Andy, you're a dandy,
E
You don't seem to make no sense.
E
Nevermind the furthermore,
E
The plea is self-defense

   A                 E
No time, no time for you
      B
I got no time, baby,
    A                        E   B
Got lots of better things to do.

E
Got no time
I got no time
 [Repeat, adlib and fade]
            
Submit corrections


        No Time lessons Hard to play? Try these video lessons and learn fast No Time lessons
        
↑ Back to top | Tablatures and chords for acoustic guitar and electric guitar, ukulele, drums are parodies/interpretations of the original songs. You may use it for private study, scholarship, research or language learning purposes only