» » »

Monkees - I M A Believer Tabs

Artists:  A B C D E F G H I J K L M N O P Q R S T U V W X Y Z # 

I M A Believer Tabs

(ver. 3) Click to play this song!
Monkees
 Rating:
4/5 (4 votes)

 I M A Believer lessons Tabs too difficult? Try these video lessons and learn fast
 
                (Intro)
============================================================================
Tuning: Standard
============================================================================
The reason why i submitted this tab is because the other tab for this is incorrect and hard to read.
============================================================================

Intro (Clean)

e|----------------|-13--13--12--12-|----------------|----------------|
B|----------------|-15--15--13--13-|----------------|----------------|
G|-------------12-|-----12--12--12-|----------------|----------------|
D|----------------|----------------|----3-----3---3-|----3-----3---3-|
A|----------------|----------------|3h5---3h5---3---|3h5---3h5---3---|
E|----------------|----------------|----------------|----------------|

============================================================================
or you can play the intro like this, which ever way is easier for you.
============================================================================

Different Intro (Clean)

e|----------------|-1---1---0---0--|----------------|----------------|
B|----------------|-3---3---1---1--|----------------|----------------|
G|-------------0--|-----0---0---0--|----------------|----------------|
D|----------------|----------------|----3-----3---3-|----3-----3---3-|
A|----------------|----------------|3h5---3h5---3---|3h5---3h5---3---|
E|----------------|----------------|----------------|----------------|

============================================================================
Well thats it any questions or suggestions please leave a comment, Thanks
============================================================================h~ = Hammer On
============================================================================
            
Submit corrections


        I M A Believer lessons Hard to play? Try these video lessons and learn fast I M A Believer lessons
        
↑ Back to top | Tablatures and chords for acoustic guitar and electric guitar, ukulele, drums are parodies/interpretations of the original songs. You may use it for private study, scholarship, research or language learning purposes only