Home » M » Money Eddie »

Money Eddie - Two Tickets To Paradise Tabs

Artists:  A B C D E F G H I J K L M N O P Q R S T U V W X Y Z # 

Two Tickets To Paradise Tabs

(ver. 1) Click to play this song!
Money Eddie

By Eddie Money

9-|---7-----7-------------|
D------7----5---5--|-------7--7---|----7>9--------|------9------------------|
A------5----5---5--|-------7--7---|-----------------|-----------------------|
E-----------3---3--|-------5---5---|-----------------|----------------------|
I've Got 2 Tickets To Paradise

E--------------------|----------------|----------------|--------------------|
B--------------------|----------------|----------------|--------------------|
G------7------------|----------------|----------7>9-|---7-----7-------------|
D------7----5---5--|-------7--7---|----7>9--------|------9------------------|
A------5----5---5--|-------7--7---|-----------------|-----------------------|
E-----------3---3--|-------5---5---|-----------------|----------------------|
Pack Your Bags W'ell Leave Tonight.

E--------------------|----------------|----------------|--------------------|
B--------------------|----------------|----------------|--------------------|
G------7------------|----------------|----------7>9-|---7-----7-------------|
D------7----5---5--|-------7--7---|----7>9--------|------9------------------|
A------5----5---5--|-------7--7---|-----------------|-----------------------|
E-----------3---3--|-------5---5---|-----------------|----------------------|
      2 Tickets To Paradise

                                                Intro to Solo
E--------------------|----------------|-----------------|---------------------|
B--------------------|----------------|-2-3--55-33--|-22----------------------|
G------7------------|----------------|-----------------|-----44--2--4s6-------|
D------7----5---5--|-------7--7---|-----------------|-------------------------|
A------5----5---5--|-------7--7---|-----------------|-------------------------|
E-----------3---3--|-------5---5---|-----------------|------------------------|
       2 tickets to paradise.
                                                 Solo
E-------------------|-------------------|------------------|------------------------|
B--2-3--55--33--|-22---------------|--2-3--55------|--------------------------------|
G------------------|-----44-4s6-4-2-|-----------------|-----------------------------|
D------------------|--------------------|-----------------|-------------------------|
A------------------|--------------------|-----------------|-------------------------|
E------------------|--------------------|-----------------|-------------------------|

This is a great solo, but off the top of my head I can't remember it.
Have fun with the rest of the song.
            
Submit corrections

↑ Back to top | Tablatures and chords for acoustic guitar and electric guitar, ukulele, drums are parodies/interpretations of the original songs. You may use it for private study, scholarship, research or language learning purposes only