» » »

Momus - The Guitar Lesson Tabs

Artists:  A B C D E F G H I J K L M N O P Q R S T U V W X Y Z # 

The Guitar Lesson Tabs

(ver. 1) Click to play this song!
Momus
 Rating:
4/5 (4 votes)

 The Guitar Lesson  lessons Tabs too difficult? Try these video lessons and learn fast
 
                Intro:
e|---------------------------------------------------------------------------|
B|---------------------------------------------------------------------------|
G|8--8--6--6--8--8--6--------------------------------------------------------|
D|-6--6--6--6--6--6-6--------------------------------------------------------|
A|--7--7--7--7--7--77--------------------------------------------------------|
E|---------------------------------------------------------------------------|

Verse:
e|---------------------------------------------------------------------------|
B|---------------------------------------------------------------------------|
G|8--8--6--6--8--8--6--6--6--6--4--4--4--4--3--3--4--4--3--3--4--4--3--3--3--|
D|-6--6--6--6--6--6--6--6--4--4--4--4--2--2--2--2--2--2--2--2--2--2--2--2--1-|
A|--7--7--7--7--7--7--7--7--6--6--5--5--3--3--4--4--3--3--4--4--3--3--4--4--2|
E|---------------------------------------------------------------------------|

e|---------------------------------------------------------------------------|
B|---------------------------------------------------------------------------|
G|3--1--1--------------------------------------------------------------------|
D|-1--1--1-------------------------------------------------------------------|
A|--2--2--2------------------------------------------------------------------|
E|---------------------------------------------------------------------------|

Middle eight:
e|---------------------------------------------------------------------------|
B|---------------------------------------------------------------------------|
G|13----13----11----11----13----13----11----11----11---11---9---9---9--9--8--|
D|--11----11----11----11----11----11----11----11----9----9---9---9---7--7--7-|
A|----12----12----12----12----12----12----12----12---11---11--10--10--8--8--9|
E|---------------------------------------------------------------------------|

e|---------------------------------------------------------------------------|
B|---------------------------------------------------------------------------|
G|8--------------------------------------------------------------------------|
D|-7-------------------------------------------------------------------------|
A|--9------------------------------------------------------------------------|
E|---------------------------------------------------------------------------|

            
Submit corrections


        The Guitar Lesson  lessons Hard to play? Try these video lessons and learn fast The Guitar Lesson  lessons
        
↑ Back to top | Tablatures and chords for acoustic guitar and electric guitar, ukulele, drums are parodies/interpretations of the original songs. You may use it for private study, scholarship, research or language learning purposes only