» » »

Mo Kenney - Walk This Way Tabs

Artists:  A B C D E F G H I J K L M N O P Q R S T U V W X Y Z # 

Walk This Way Tabs

(ver. 1) Click to play this song!
Mo Kenney
 Rating:
4.3/5 (21 vote)


 Walk This Way  lessons Tabs too difficult? Try these video lessons and learn fast
 
                e|--------------------------|
B|--------------------------|
G|---9----7---4---5---------| 
D|---9----7---4---5---------|
A|---7----5---2---3---------|
E|--------------------------|
     E    D   B   C

 E                D
All my life I've stepped to the rhythm
       B                C
of the drums inside my head
 E               D
Longing for the sweet sound of my mama
  B                      C
Make them all walk this way
 E                        D
There's a light for you, burning for you
 B 
Oh, my mama said
  C                  D
It is burning for you
 E                    D
Oh, don't let it go, oh, don't let it it go
 B                      C
You'll find a way, baby, make them all burn


Verse:

e|------------------------------|
B|------------------------------|
G|------------------------------|  X3
D|------------------------------|
A|---7-7-7-x-5-7--7-7-7-7-5---5-|
E|--------------------------7---|

e|---------------------------------|----------------------------------|
B|---------------------------------|----------------------------------|
G|---------------------------------|----------------------------------|
D|--5p(4)5p(4)5p(4)5p(4)5p(4)5p(4)-|-4p(3)4p(3)4p(3)4p(3)4p(3)4p(3)---|
A|---------------------------------|----------------------------------|
E|---------------------------------|----------------------------------|

e|------------------------------|
B|------------------------------|
G|------------------------------|  X3
D|------------------------------|
A|---7-7-7-x-5-7--7-7-7-7-5---5-|
E|--------------------------7---|

e|---------------------------------|----------------------------------|
B|---------------------------------|----------------------------------|
G|---------------------------------|----------------------------------|
D|--5p(4)5p(4)5p(4)5p(4)5p(4)5p(4)-|-4p(3)4p(3)4p(3)4p(3)4p(3)4p(3)---|
A|---------------------------------|----------------------------------|
E|---------------------------------|----------------------------------|

e|--------------------------------|
B|--------------------------------|
G|---9-9-9-x-7-9--9-9-9-9-7---7---| X3
D|--------------------------9-----|
A|--------------------------------|
E|--------------------------------|

e|---------------------------------|
B|--8p(7)8p(7)8p(7)8p(7)8p(7)8-7~~-|
G|---------------------------------|
D|---------------------------------|
A|---------------------------------|
E|---------------------------------|

Chorus:

e|--------------------------|
B|--------------------------|
G|---9----7---4---5---------| 
D|---9----7---4---5---------|
A|---7----5---2---3---------|
E|--------------------------|
     E    D   B   C

 E                D
All my life I've stepped to the rhythm
       B                C
of the drums inside my head
 E               D
Longing for the sweet sound of my mama
  B                      C
Make them all walk this way
 E                        D
There's a light for you, burning for you
 B 
Oh, my mama said
  C                  D
"It is burning for you
 E                    D
Oh, don't let it go, oh, don't let it it go
 B                      C
You'll find a way, baby, make them all burn"


e|--12-12-12---------------------------------|-12-12-12-----------------------------------------|
B|-----------12-12-12-12-15-12---------------|----------12-12-12-12-15-12-------------12--------|
G|-----------------------------14-14p12-14~--|----------------------------14-14p12-14----14-12~-|
D|-------------------------------------------|--------------------------------------------------|
A|-------------------------------------------|--------------------------------------------------|
E|-------------------------------------------|--------------------------------------------------|


e|--12-12-12---------------------------------|-12-12-12-----------------------------------------|
B|-----------12-12-12-12-15-12---------------|----------12-12-12-12-15-12-------------12--------|
G|-----------------------------14-14p12-14~--|----------------------------14-14p12-14----14-12~-|
D|-------------------------------------------|--------------------------------------------------|
A|-------------------------------------------|--------------------------------------------------|
E|-------------------------------------------|--------------------------------------------------|



Verse:

e|------------------------------|
B|------------------------------|
G|------------------------------|  X3
D|------------------------------|
A|---7-7-7-x-5-7--7-7-7-7-5---5-|
E|--------------------------7---|

e|---------------------------------|----------------------------------|
B|---------------------------------|----------------------------------|
G|---------------------------------|----------------------------------|
D|--5p(4)5p(4)5p(4)5p(4)5p(4)5p(4)-|-4p(3)4p(3)4p(3)4p(3)4p(3)4p(3)---|
A|---------------------------------|----------------------------------|
E|---------------------------------|----------------------------------|

e|------------------------------|
B|------------------------------|
G|------------------------------|  X3
D|------------------------------|
A|---7-7-7-x-5-7--7-7-7-7-5---5-|
E|--------------------------7---|

e|---------------------------------|----------------------------------|
B|---------------------------------|----------------------------------|
G|---------------------------------|----------------------------------|
D|--5p(4)5p(4)5p(4)5p(4)5p(4)5p(4)-|-4p(3)4p(3)4p(3)4p(3)4p(3)4p(3)---|
A|---------------------------------|----------------------------------|
E|---------------------------------|----------------------------------|

e|--------------------------------|
B|--------------------------------|
G|---9-9-9-x-7-9--9-9-9-9-7---7---| X3
D|--------------------------9-----|
A|--------------------------------|
E|--------------------------------|

e|---------------------------------|
B|--8p(7)8p(7)8p(7)8p(7)8p(7)8-7~~-|
G|---------------------------------|
D|---------------------------------|
A|---------------------------------|
E|---------------------------------|


Chorus:

e|--------------------------|
B|--------------------------|
G|---9----7---4---5---------| 
D|---9----7---4---5---------|
A|---7----5---2---3---------|
E|--------------------------|
     E    D   B   C

 E                D
All my life I've stepped to the rhythm
       B                C
of the drums inside my head
 E               D
Longing for the sweet sound of my mama
  B                      C
Make them all walk this way
 E                        D
There's a light for you, burning for you
 B 
Oh, my mama said
  C                  D
"It is burning for you
 E                    D
Oh, don't let it go, oh, don't let it it go
 B                      C
You'll find a way, baby, make them all burn"


Bridge:

"Sun rises beyond the sea,The dead will see and we might stop living.."

e|--------------------------------------------|
B|-------------------------x----x-x-x-x-------|
G|----9/-------------------x----x-x-x-x-------|
D|----9/-------------------x----x-x-x-x-------|
A|--------------------------------------------|
E|--------------------------------------------|

             PM|--------|
e|---------------7-7-5------------------------|
B|---------------------7----------------------|
G|--9/--x-7-7--x------------4-4--4-3-0--5-----|
D|--9/--x-7-7---------------4-4---------5-----|
A|--------------------------------------------|
E|--------------------------------------------|

             PM|--------| 
e|---------------7-7-5------------------------|
B|---------------------7----------------------|
G|--9/--x-7-7--x------------4-4--4-3-0--5-----|
D|--9/--x-7-7---------------4-4---------5-----|
A|--------------------------------------------|
E|--------------------------------------------|
   All my life I've stepped to the rhythm of the drums inside my head

             PM|--------|
e|---------------7-7-5------------------------|
B|---------------------7----------------------|
G|--9/--x-7-7--x------------4-4--4-3-0--5-----|
D|--9/--x-7-7---------------4-4---------5-----|
A|--------------------------------------------|
E|--------------------------------------------|
   Longing for the sweet sound of my mama Make them all walk this way


Chorus:


e|--------------------------|
B|--------------------------|
G|---9----7---4---5---------| 
D|---9----7---4---5---------|
A|---7----5---2---3---------|
E|--------------------------|
     E    D   B   C

 E                D
All my life I've stepped to the rhythm
       B                C
of the drums inside my head
 E               D
Longing for the sweet sound of my mama
  B                      C
Make them all walk this way
 E                        D
There's a light for you, burning for you
 B 
Oh, my mama said
  C                  D
"It is burning for you
 E                    D
Oh, don't let it go, oh, don't let it it go
 B                      C
You'll find a way, baby, make them all burn"


e|--12-12-12---------------------------------|-12-12-12-----------------------------------------|
B|-----------12-12-12-12-15-12---------------|----------12-12-12-12-15-12-------------12--------|
G|-----------------------------14-14p12-14~--|----------------------------14-14p12-14----14-12~-|
D|-------------------------------------------|--------------------------------------------------|
A|-------------------------------------------|--------------------------------------------------|
E|-------------------------------------------|--------------------------------------------------|


e|--12-12-12---------------------------------|-12-12-12-----------------------------------------|
B|-----------12-12-12-12-15-12---------------|----------12-12-12-12-15-12-------------12--------|
G|-----------------------------14-14p12-14~--|----------------------------14-14p12-14----14-12~-|
D|-------------------------------------------|--------------------------------------------------|
A|-------------------------------------------|--------------------------------------------------|
E|-------------------------------------------|--------------------------------------------------|


e|--12-12-12---------------------------------|-12-12-12-----------------------------------------|
B|-----------12-12-12-12-15-12---------------|----------12-12-12-12-15-12-------------12--------|
G|-----------------------------14-14p12-14~--|----------------------------14-14p12-14----14-12~-|
D|-------------------------------------------|--------------------------------------------------|
A|-------------------------------------------|--------------------------------------------------|
E|-------------------------------------------|--------------------------------------------------|

N.C
Sunshine is beyond the sea
You'll find a way, baby
Make them all burn

e|--12-12-12---------------------------------|-12-12-12-----------------------------------------|
B|-----------12-12-12-12-15-12---------------|----------12-12-12-12-15-12-------------12--------|
G|-----------------------------14-14p12-14~--|----------------------------14-14p12-14----14-12~-|
D|-------------------------------------------|--------------------------------------------------|
A|-------------------------------------------|--------------------------------------------------|
E|-------------------------------------------|--------------------------------------------------|

N.C
Sunshine is beyond the sea
You'll find a way, baby
Make them all burn
            
Submit corrections



        Walk This Way  lessons Hard to play? Try these video lessons and learn fast Walk This Way  lessons
        
↑ Back to top | Tablatures and chords for acoustic guitar and electric guitar, ukulele, drums are parodies/interpretations of the original songs. You may use it for private study, scholarship, research or language learning purposes only