» » »

Mo Kenney - Dust Is Gone Tabs

Artists:  A B C D E F G H I J K L M N O P Q R S T U V W X Y Z # 

Dust Is Gone Tabs

(ver. 1) Click to play this song!
Mo Kenney
 Rating:
4.4/5 (7 votes)


 Dust Is Gone  lessons Tabs too difficult? Try these video lessons and learn fast
 
                
[Intro]
e|--8-7-------------------|--8-7-------------------|-----------------|
B|------8-5---------------|------8-5---------------|-----------------|
G|----------7~--5-7/9-5~--|----------7~--5-7/9-5~--|--/7--7-9~-------|
D|------------------------|------------------------|-----------------|
A|------------------------|------------------------|-----------------|
E|------------------------|------------------------|-----------------|

e|--8-7-------------------|----8---------|-8-7------------------------|
B|------8-5---------------|------8-------|-----8-5--------------------|
G|----------7~--5-7/9-5~--|--5-----5-5~--|---------7~--5-7/9-5~-------|
D|------------------------|--------------|----------------------------|
A|------------------------|--------------|----------------------------|
E|------------------------|--------------|----------------------------|

[Chorus]
N.C
Have you had love for me boy?
Have you only love for the blue sky?
Have you kissed the lips of the one
You liked so hard you couldn't stay alive?
I had a little dream I would have liked us to work on
Life had other plans on our romance
Damn, we could only have one dance
And we had no time

[Verse]
N.C
Dust is gone
N.C
We see the sun
N.C
All of us want some to hold in the winter
N.C
What went wrong *
I couldn't tell if you asked me
Tik-tok-tik
Broke our hearts in two

* (start playing this)

 e|--8-7------------------|----------|----------|------|-----------|
 B|------8-5--------------|----------|----------|------|-----------|
 G|----------7~--5-7/9-5~-|--7h9-9~--|--7-9-7~--|--5~--|-----------|
 D|-----------------------|----------|----------|------|---7~------|
 A|-----------------------|----------|----------|------|-----------|
 E|-----------------------|----------|----------|------|-----------|

[Instrumental part]
A   C   G   F   A   C   G*   F*

e|----------------------------|
B|--1-------------------------|
G|--2---------------12---10---|
D|--2---5---5---3---12---10---|
A|--0---3---5---3---10---8----|
E|----------3---1-------------|
    Am  C   G   F   G*   F*

[Verse 2]
N.C
Sand is warm
N.C
The sea lies strong
N.C
Dust is gone
N.C
As the ships we're waiting for
N.C
Only life*
Keep us alive as time goes by
Salvation will come and break our hearts

* (start playing this)

 e|--8-7------------------|----------|----------|------|-----------|
 B|------8-5--------------|----------|----------|------|-----------|
 G|----------7~--5-7/9-5~-|--7h9-9~--|--7-9-7~--|--5~--|-----------|
 D|-----------------------|----------|----------|------|---7~------|
 A|-----------------------|----------|----------|------|-----------|
 E|-----------------------|----------|----------|------|-----------|

[Chorus]
e|------------------|
B|--1---------------|
G|--2---------------|
D|--2---5---5---3---|
A|--0---3---5---3---|
E|----------3---1---|
    Am  C   G   F     

 Am                    C
Have you had love for me, boy?
              G                   F
Have you only love for the blue sky?
         Am                     C
Have you kissed the lips of the one you liked

e|-----3-----------------------1-------1---------------|
B|-----3-----------------------1---------1-------------|
G|-----4-----------------------2-----2-----(2)---------|
D|-----5-----------------------3---3-------------------|
A|-----5-----------------------3-----------------------|
E|-----------------------------------------------------|
   So hard you couldn't stay alive?
e|-----------------------------------------------------|
B|--1-----------------------------3----------3p1-------|
G|--2-----------------------------0--------0-----------|
D|--2-----------------------------2----0h2-------------|
A|--0-----------------------------3--------------------|
E|-----------------------------------------------------|
  I had a little dream, I would've liked us to work on
e|--3---------------1-----1----------------------------|
B|--3---------------1-----1-----1----------------------|
G|--4---------------2-----------2----------------------|
D|--5---------------3-----------2----------------------|
A|--5---------------3-----------0----------------------|
E|-----------------------------------------------------|
   Guide you in the darkness, our romance damn
e|--------------------------3-------------------1------|
B|--1--------1--------------3-------------------1------|
G|--0------0---0------------4-------------------2------|
D|--2--0h2------------------5-------------------3------|
A|--3-----------------------5-------------------3------|
E|-----------------------------------------------------|
   We could only have one dance, and we had no time

[Bridge]
e|------------------|-------------|
B|------------------|-------------|
G|------------------|-------------|
D|------------------|-------------|
A|------------------|-------------|
E|-5~--3~--1~--0----|---8-7-5~----|
   A   G   F   E        A*

A             G
All the time, all the way
F               G
What we say everyday
A*             G    
Life is cruel and too short
F              E
Bittersweet is our reward
A            G
All the time all the way
F               G
What we say everyday
A*         G
No time to breathe and stay
F               E
So it's time to throw it away
N.C
But I'm still on the sand

Chorus:

 A                     C
Have you had love for me, boy?
              G                   F
Have you only love for the blue sky?
         Am                     C
Have you kissed the lips of the one you liked

e|-----3-----------------------1-------1---------------|
B|-----3-----------------------1---------1-------------|
G|-----4-----------------------2-----2-----(2)---------|
D|-----5-----------------------3---3-------------------|
A|-----5-----------------------3-----------------------|
E|-----------------------------------------------------|
   So hard you couldn't stay alive?
e|-----------------------------------------------------|
B|--1-----------1-----------------3----------3p1-------|
G|--2-----------2-----------------0--------0-----------|
D|--2-----------2-----------------2----0h2-------------|
A|--0-----------0-----------------3--------------------|
E|-----------------------------------------------------|
 I had a little dream, I would've liked us to work on
e|--3---------------1-----1----------------------------|
B|--3---------------1-----1-----1----------------------|
G|--4---------------2-----------2----------------------|
D|--5---------------3-----------2----------------------|
A|--5---------------3-----------0----------------------|
E|-----------------------------------------------------|
   Guide you in the darkness, our romance damn
e|--------------------------3-------------------1------|
B|--1--------1--------------3-------------------1------|
G|--0------0---0------------4-------------------2------|
D|--2--0h2------------------5-------------------3------|
A|--3-----------------------5-------------------3------|
E|-----------------------------------------------------|
   We could only have one dance, and we had no time


Outro:
N.C
Have you had love for me?
N.C
Have you only got love for the wide sky?
            
Submit corrections



        Dust Is Gone  lessons Hard to play? Try these video lessons and learn fast Dust Is Gone  lessons
        
↑ Back to top | Tablatures and chords for acoustic guitar and electric guitar, ukulele, drums are parodies/interpretations of the original songs. You may use it for private study, scholarship, research or language learning purposes only