» » »

Mohammed Rafi - O Haseena Zulfon Wali Tabs

Artists:  A B C D E F G H I J K L M N O P Q R S T U V W X Y Z # 

O Haseena Zulfon Wali Tabs

(ver. 1) Click to play this song!
Mohammed Rafi
 Rating:
4.3/5 (20 votes)

 O Haseena Zulfon Wali lessons Tabs too difficult? Try these video lessons and learn fast
 
                e|------------------------|------------------------|
B|---------6--------------|---------4-3------------|
G|----7-7-7-8-7-5-5h7-3h5-|----5-5-5---5-3-3h5-2h3-|
D|-3/5--------------------|-2/3--------------------|
A|------------------------|------------------------|
E|------------------------|------------------------|

e|------------------------|------------------------|
B|---------6--------------|---------4-3------------|
G|----7-7-7-8-7-5-5h7-3h5-|----5-5-5---5-3-3h5-2h3-|
D|-3/5--------------------|-2/3--------------------|
A|------------------------|------------------------|
E|------------------------|------------------------|

e|------------------------|-------------------|
B|------------------------|-------------------|
G|-2/3--3-3-2---------2h3-|-2-3-3-3-2---------|
D|------------5-3-3/5-----|-----------5-3-3/5-|
A|------------------------|-------------------|
E|------------------------|-------------------|

e|------------------------|-------------------|
B|------------------------|-------------------|
G|-2/3--3-3-2---------2h3-|-2-3-3-3-2---------|
D|------------5-3-3/5-----|-----------5-3-3/5-|
A|------------------------|-------------------|
E|------------------------|-------------------|

e|-----------------------|---------------8----------|
B|---8-6-8--8--8-6-8-6---|-8-8--10-10/11---10-9-8\6-|
G|-7-------------------7-|--------------------------|
D|-----------------------|--------------------------|
A|-----------------------|--------------------------|
E|-----------------------|--------------------------|

e|------------------8--10-8--------8-11\up|
B|-10-10--8-8/10-11--------11-10-11-------|
G|----------------------------------------|
D|----------------------------------------|
A|----------------------------------------|
E|----------------------------------------|

            
Submit corrections


        O Haseena Zulfon Wali lessons Hard to play? Try these video lessons and learn fast O Haseena Zulfon Wali lessons
        
↑ Back to top | Tablatures and chords for acoustic guitar and electric guitar, ukulele, drums are parodies/interpretations of the original songs. You may use it for private study, scholarship, research or language learning purposes only