» » »

Mogwai - Sine Wave Tabs

Artists:  A B C D E F G H I J K L M N O P Q R S T U V W X Y Z # 

Sine Wave Tabs

(ver. 2) Click to play this song!
Mogwai
 Rating:
4/5 (5 votes)

 Sine Wave lessons Tabs too difficult? Try these video lessons and learn fast
 
                
Effects: Delay 
Clean tone

Repeat:

E||----------------------------------|
B||-12---13--10----12--8-------------|
G||------------------------4-7-------|
D||----------------------------------|
A||----------------------------------|
E||----------------------------------|

E||----------------------------------|
B||-12---13--10----12--8-------------|
G||------------------------5-4-------|
D||----------------------------------|
A||----------------------------------|
E||----------------------------------|

Last part:

E||--7-/12----10--7--7-/12---\10--\7-|
B||----------------------------------|
G||----------------------------------|
D||----------------------------------|
A||----------------------------------|
E||----------------------------------|

E||--7---7---10-/14----7--8---8--7---|
B||----------------------------------|
G||----------------------------------|
D||----------------------------------|
A||----------------------------------|
E||----------------------------------|
            
Submit corrections


        Sine Wave lessons Hard to play? Try these video lessons and learn fast Sine Wave lessons
        
↑ Back to top | Tablatures and chords for acoustic guitar and electric guitar, ukulele, drums are parodies/interpretations of the original songs. You may use it for private study, scholarship, research or language learning purposes only