» » »

Modest Mouse - Life Like Weeds Tabs

Artists:  A B C D E F G H I J K L M N O P Q R S T U V W X Y Z # 

Life Like Weeds Tabs

(ver. 3) Click to play this song!
Modest Mouse
 Rating:
4/5 (4 votes)
                Life Like Weeds
Modest Mouse


| x mute note
| b bend
| r release
| / shift slide up
| \ shift slide down
| > legato slide (for both up and down)   
| h hammer
| p pull-off                 

Riffs are in order from when they are played

(Intro) Riff 1
e|----------------------------------|
B|----------------------------------|
G|-11--x-x-11--x-x-11--x-11--x-x-x--|
A|-11--x-x-11--x-x-11--x-11--x-x-x--|
D|--9--x-x--9--x-x--9--x--9--x-x-x--|
E|----------------------------------|

 Riff 2
e|----------------------------------|
B|----------------------------------|
G|----------------------------------|
A|-------------7--------------------|
D|-5---7---9-------9---7--5--7--5---|
E|----------------------------------|

 Riff 3
e|---------------------------------------------|
B|---------------------------------------------|
G|---------------------------------------------|
A|----------7-----------------7----------------|
D|-5--7--9-----9--7--5--7--9-----9--7--5--7--5-|
E|---------------------------------------------|

 Riff 4
e|-------------------------------------------------|
B|-------------------------------------------------|
G|-7b8r7-------------------------------------------|
A|---------9b10r9---7b8r7--------------------------|
D|--------------------------9---7---5--7---9--7--5-|
E|-------------------------------------------------|

 Riff 5
e|------------------------------------------------|
B|------------------------------------------------|
G|-7--7-------------------------------------------|
A|-------9--9--7--7-------------------------------|
D|-------------------9--9--7--7--5--5--7--9--7--5-|
E|------------------------------------------------|

 Riff 6
e|---------5-----------------------5-------------|
B|---------------------5-----------------------5-|
G|-7b8r7-------------------7b8r7-----------------|
A|-------------7b8r7-------------------7b8r7-----|
D|-----------------------------------------------|
E|-----------------------------------------------|

 Chorus Riff ("I could have told you all....")
e|-----------------------------------------------------|
B|-----------------------------------------------------|
G|-11--11/14--x-x-11--x-x-9--x-x-7--x-x-9--x-x-11--x-x-|
A|-11--11/14--x-x-11--x-x-9--x-x-7--x-x-9--x-x-11--x-x-|
D|--9---9/12--x-x--9--x-x-7--x-x-5--x-x-7--x-x--9--x-x-|
E|-----------------------------------------------------|

 "Right After Chorus" Riff (quietly)
e|-----------------|
B|-7-6---6-7-6---7-|
G|-----9-------9---|
A|-----------------|
D|-----------------|
E|-----------------|

 Riff during the jam after the first verse
e|---------------------------------------------|
B|---------------------------------------------|
G|----------------7----------------------------|
A|----------7--9-----9--7----------------------|
D|-5--7--9-----------------9--7--5--7--5--7--5-|
E|---------------------------------------------|

 Another Riff Played by 2nd guitar during jam
e|------------------------|
B|------------------------|
G|-7--6--7--6--7--6--7--6-|
A|------------------------|
D|------------------------|
E|------------------------|

 Riff ending the jam after the first verse
e|---------------------|
B|---------------------|
G|---------------------|
A|---------------------|
D|-5---7---9---10---12-|
E|---------------------|

 First Interlude riff (hard to hear)
e|---------------|
B|---------------|
G|---------------|
A|-7-5-4---------|
D|-------7-5-5-5-|
E|---------------|
  P.M............

 3rd Jam
e|----------------------|
B|----------------------|
G|-7b8-7-6b7r6b7r-------|
A|-7b8-7-6b7r6b7r-------|
D|-5b6-5-4b5r4b5r-------|
E|----------------------|

 3rd Jam 2nd guitar
e|----------------------|
B|----------------------|
G|----------------------|
A|-5----5-/-9----9-\----|
D|-5----5-/-9----9-\----|
E|-3----3-/-7----7-\----|

 Riff during second interlude
e|-17-15-14----14-(14)/|
B|----------15---------|
G|---------------------|
A|---------------------|
D|---------------------|
E|---------------------|

Breakdown DO NOT STRUM (bending feedback w/whammy)
e|-0b-|
B|-0b-|
G|-0b-|
A|-0b-|
D|-0b-|
E|-0b-|

 Final riffs 1
e|-----------------------|
B|-----------------------|
G|-----------------------|
A|---4h5-7-5/7-5p4-5p4---|
D|-5-------------------5-|
E|-----------------------|

Final riffs 2
e|---------------------|
B|---------------------|
G|-----------4h5-7p5-4-|
A|---4h5-7-5-----------|
D|-5-------------------|
E|---------------------|

Those two riffs before they are played really clear
in the song kind of variate, but it's the same notes
so you shouldn't have much trouble finding them.

During the final riffs the second guitar plays stuff 
like this
e|---------------|
B|---------------|
G|-4h5-7p5-4h5p4-|
A|---------------|
D|---------------|
E|---------------|
 
 and this
e|---------|
B|---------|
G|-4-5/7-5-|
A|---------|
D|---------|
E|---------|

That's it, just PM me if you have any corrections that you think I should know about.
            
Submit corrections

↑ Back to top | Tablatures and chords for acoustic guitar and electric guitar, ukulele, drums are parodies/interpretations of the original songs. You may use it for private study, scholarship, research or language learning purposes only