Home » M » Mod »

Mod - Ballad Of Dio Tabs

Artists:  A B C D E F G H I J K L M N O P Q R S T U V W X Y Z # 

Ballad Of Dio Tabs

(ver. 1) Click to play this song!
Mod
#


Resent-Date: Wed, 02 Apr 1997 10:49:42 +0200

----------
X-Sun-Data-Type: default
X-Sun-Data-Name: mod
X-Sun-Content-Lines: 35


Artist : M.O.D.
Song   : Ballad of DIO



e|---------------------------|--------------------------------------------------|
B|---------------------------|--------------------------------------------------|
G|---------------------------|--------------------------------------------------|
D|--4------------6-----------|--------------------------------------------------|
A|--2------------4----5---3--|2------2---2---2------2---2---2------2---2---2----|
E|--------------------3---1--|0------0---0---0------0---0---0------0---0---0----|

                     In the dark    of the day    and the black    of the sun




                                                [repeat and fade]
e|--------------------------|------------------------------|
B|--------------------------|------------------------------|
G|--------------------------|2---4------2---4------2---4---|
D|-------------2------------|0---2------0---2------0---2---|
A|5------------0------------|------------------------------|
E|3-------------------------|------------------------------|
         he's comming for you,look out  look out   look out
            
Submit corrections

↑ Back to top | Tablatures and chords for acoustic guitar and electric guitar, ukulele, drums are parodies/interpretations of the original songs. You may use it for private study, scholarship, research or language learning purposes only