» » »

Mission - Dream On Tabs

Artists:  A B C D E F G H I J K L M N O P Q R S T U V W X Y Z # 

Dream On Tabs

(ver. 1) Click to play this song!
Mission
 Rating:
4/5 (4 votes)

 Dream On lessons Tabs too difficult? Try these video lessons and learn fast
 
                #------------------------------------------------------------------------------##
#



#---------------------------------------------------------------------------
---##

Right then. This is a tad longer than I originally expected, but I've included
the music all the way through the song, rather than just doing separate riffs,
as there are far too many tiny differences between riffs, which I have included
here. Make sure you are able to play the song alongside yourself, or you know it
backwards, otherwise you won't have a chance. Nevermind. Anyway, here it is.
Enjoy!

For comments, corrections, kippers, etc., contact me through Mad Marcus B at


                                    Dream On
                                    ~~~~~~~~
                                 By The Mission
                                 ~~~~~~~~~~~~~~
                           ~~~~~~~~~~~~~~~~~~~~~~~~~~
                          (Version Datestamp: 27.12.94)

Intro:

e|-1-----1--0--------|-1-----1--0--------|-1-----1--0------|
B|---3--------1------|---3--------2------|---3--------1----|
G|-----2--------2----|-----3--------2----|-----2--------2--|
D|-0--------2--------|-0--------2--------|-0--------2------|
A|-------------------|-------------------|-----------------|
E|-------------------|-------------------|-----------------|

e|---1---3----5---10-|
B|----3--3----5---11-|
G|-----2-------------|
D|-------------------|
A|-0-----------------|
E|-------------------|

e|---1------0-----0--|-1-----1--0-----0--|-1-----1---0-----|
B|-----3------1------|---3--------2------|---3---------1---|
G|-------2------2----|-----3--------2----|-----2---------2-|
D|-0--------2--------|-0--------2--------|-0---------2-----|
A|-------------------|-------------------|-----------------|
E|-------------------|-------------------|-----------------|

e|------1------0-----|
B|---3-----3---------|
G|--2-2------2-------|
D|-0-----------------| 
        
Submit corrections


        Dream On lessons Hard to play? Try these video lessons and learn fast Dream On lessons
        
↑ Back to top | Tablatures and chords for acoustic guitar and electric guitar, ukulele, drums are parodies/interpretations of the original songs. You may use it for private study, scholarship, research or language learning purposes only