» » »

Mission - Beyond The Pale Tabs

Artists:  A B C D E F G H I J K L M N O P Q R S T U V W X Y Z # 

Beyond The Pale Tabs

(ver. 1) Click to play this song!
Mission
 Rating:
4/5 (4 votes)

 Beyond The Pale lessons Tabs too difficult? Try these video lessons and learn fast
 
                #------------------------------------------------------------------------------##

                          Beyond The Pale - The Mission
                                 ---------------


                                 Guitar
                                 ------

Riff 1 (Main Riff)
-----------------------------------------------------------------|
e|----------------------(1)--------------------------------------|
B|----------------------(3)--------------------------------------|
G|-2h3p2---0------------(3)---------------0----------------------|
D|-------3---2-0---0----(3)------0------0------------------------|
A|---------------3---1--(1)--0-1--(1)-3--------------------------|
E|---------------------------------------------------------------|
 | Dm                Bb      G5       C

Riff 2 (Verse Riffs)
-----------------------------------------------------------------|
e|---------------------------------------------------------------|
B|---------5----------------------------5---------6-5-6----------|
G|-----7-----7---7------------------7-----7---7-5-------5--------|
D|-5-7---7-----7---8------------5-7---7-----7--------------------|
A|---------------------------------------------------------------|
E|---------------------------------------------------------------|
 | Dm              Bb                           C

e|--------------------------------------------------------------|
B|-----------------------8--------------------------------------|
G|-----7---------7---5-7----------------------------------------|
D|-5-7---7---7-8---8--------------------------------------------|
A|--------------------------------------------------------------|
E|--------------------------------------------------------------|

Riff 3 (Chorus Riff)
--------------------------------|
e|------------------------------|
B|-3----------------------------|
G|-2----------------------------|
D|-0---------------0-2-0---0----|
A|-0-----------0-1-------3------|
E|-----------3------------------|
 | D5        G5               |

Riff 4 (Second Chorus Riff)
------

Riff 5 (1st Bridge Riff) - Clean sound
-----------------------------------------------------------------|
e|-1---0-------------------|       |------------3--1--0----------|
B|(3)----1-------3-1-------| }     |-1-----1----0--3--1----------|
G|(2)--------0-2-------0---| } *3  |-0---0---0--0--3--0----------|
D|(0)----------------------| }     |-2----------0--3--2----------|
A|-------------------------| }     |-3----------2--1--3----------|
E|-------------------------|       |------------3----------------|

Riff 6 (2nd Bridge Riff) - Sustained sound
------------------------------------------------------------------|
e|-----------------------------|      |---------------------------|
B|-3~~~~~~~~~~~~---------------| }    |-1~~~~~~~~---1-------------|
G|--(vibrato)----2-3-2-0---2-3-| } *3 |-----------3---3---2-3-2---|
D|-----------------------------| }    |---------------------------|
A|-----------------------------| }    |---------------------------|
E|-----------------------------|      |---------------------------|

Riff 7 (Solo Riff)
-------------------------|
e|-5---3---1--0----------|
B|---------------1--3----|
G|-----------------------|
D|-----------------------|
A|-----------------------|
E|-----------------------|

Riff 8
-----------------------------------|
e|---------------------------------|
B|-3-------------------------------|
G|-2-------------------------------|
D|-0-------------------------------|
A|-0-------------------------------|
E|---------------------------------|
 | D5

Riff 9
-----------------------------------|                         *
e|-0---------1--------0--------1---|
B|-1---------3--------1--------3---|
G|-0---------2--------0--------2---|
D|-2---------0--------2--------0---|
A|-3------------------3--------*---| * Played on ending only
E|---------------------------------|
 | C         Dm       C        Dm

                                  Bass
                                  ----
Riff 1 (Main Riff)
--------------------------------------------------------------------|
G|------------------------------------------------------------------|
D|-0-0-0-0-0-0-0-0-0-0-0-0-0-0-0-0----------------------------------|
A|---------------------------------1-1-1-1-1-1-1-1---------3-3-3-3--|
E|-------------------------------------------------3-3-3-3----------|

Riff 2 (1st and 2nd verses)
--------------------------------------------------------------------|
G|------------------------------------------------------------------|
D|-0----------2--3------------3-3-2-0-----------3--2----------------|
A|------------------1-----------------3---------------------1---3---|
E|----------------------------------------------------3-------------|
 | Dm               Bb                C               G5    Bb  C

Riff 3 (Chorus - 1st part)
------------------------------------|
G|----------------------------------|
D|-0-0-0-0-0-0----------------------|
A|---------------1------------------|
E|-------------3---3-3-3-3-3-3-3-3--|
 | D5              G5

Riff 4 (Chorus - 2nd part)
--------------------------------------------------------------------|
G|------------------------------------------------------------------|
D|-0-0-0-0-0-0-0-0-3-3-3-3-3-3-3-3----------------------------------|
A|-------------------------------------------------1-1-1-1-1-1-1-1--|
E|---------------------------------3-3-3-3-3-3-3-3------------------|
 | D5              F               G5              Bb

Riff 5
---------------------------------------------------------------|
G|-------------------------------------------------------*-----|
D|-------------2--3--0-----------2--3--------------2--3--(0)---|
A|-3-----------------------------------3-----------------------|Play on
E|-------------------------------------------------------------|ending
 | C                 Dm                C                  only

Riff 6
-----------------------------------|
G|---------------------------------|
D|-0-------------------------------|
A|---------------------------------|
E|---------------------------------|

Riff 7
-----------------------------------|
G|---------------------------------|
D|---------------------------------|
A|-3-----------------1---3---------|
E|-------------3-------------------|
 | C           G5    Bb  C

Riff 8
--------------------------------------------------------------------|
G|------------------------------------------------------------------|
D|-0---0-0-0-0-0-0-0-0-0-0-0-0-0-0-3-3-3-3-3-3-3-3-5-5-5-5-5-5-5-5--|
A|------------------------------------------------------------------|
E|------------------------------------------------------------------|

G|-----------------------------------------------------------------|
D|-0---0-0-0-0-0-0-0-0-0-0-0-0-0-0---------------------------------|
A|---------------------------------3-3-3-3-3-3-3-3---------1---3---|
E|-------------------------------------------------3---3-3---------|

Riff 9
--------------------------------------------------------------------|
G|------------------------------------------------------------------|
D|-0-0-0-0-0-0-0-0-3-3-3-3-3-3-3-3----------------------------------|
A|-------------------------------------------------3-3-3-3-3-3-3-3--|
E|---------------------------------3-3-3-3-3-3-3-3------------------|

G|------------------------------------------------------------------|(With snare drum)
D|-0-0-0-0-0-0-0-0-3-3-3-3-3-3-3-3-----------------*-*---*-3-3--3---|
A|-------------------------------------------------1-1---1-*-*--*---|
E|---------------------------------3-3-3-3-3-3-3-3------------------|

Riff 10 (3rd verse)
--------------------------------------------------------------------|
G|------------------------------------------------------------------|
D|-0-0-0-0-0-0-0-0-0-0-0-0-2-2-3-3-------------------------3-3-2-0--|
A|---------------------------------1-1-1-1-1-1-1-1-1-1-1-1----------|
E|------------------------------------------------------------------|

G|-----------------------------------------------------------------|
D|-------------------------3-3-2-2---------------------------------|
A|-3-3-3-3-3-3-3-3-3-3-3-3-------------------------1-1-1-1-3-3-3-3-|
E|---------------------------------3-3-3-3-3-3-3-3-----------------|

                               ---

Notes
-----

Guitar 1 usually plays clean, guitar 2 with distortion.
When only one guitar is marked, the other guitar usually plays
chords that tie with the bass.

Guitar riff 4 (the lead guitar on the second part of the chorus) is
_very_ hard to hear so I usually play palm-muted power chords that follow
the bass instead (ie, D5, F, G5, Bb).

On the LP version guitar riff 6 (the bridge) is played with a
tremolo effect.  On live versions it's played with a sustained
'synth' type sound.

How to play it:

        | Intro   |Main Riff| Verse | Chorus  |   |
Guitar 1| 5 5 5 5 | 1 1 1 1 | 2   2 | 3 3 4   | 9 |
Guitar 2|         | 8 8 8 8 | 8     | 8 8     |   |
Bass    |        7| 1 1 1 1 | 2   2 | 3 3 4   | 5 |

        |Main Riff| Verse | Chorus |   |    Bridge     |
Guitar 1| 1    1  | 2   2 | 3 3 4  | 9 | 5 5 5 7 7 7 7 |
Guitar 2| 8    8  | 8     | 8 8    |   |   6 6 6       |
Bass    | 1    1  | 2   2 | 3 3 4  | 5 | 67678 9       |

        |Main Riff| Verse  | Chorus | Ending |
Guitar 1| 1    1  | 2   2  | 3 3 4  | 9    9 |
Guitar 2| 8    8  | 8   8  | 8 8    |        |
Bass    | 1    1  | 10  10 | 3 3 4  | 5    5 |


Lyrics/Chords
-------------
Dm                              Bb
Cold still waters running deep, pale before the eyes

C                                G
Ravaged, by the hands that feed, thunder clouds the skies

Dm                      Bb
Drifting with the tide, floating with the stream

    C                                            G
The howling winds have gathered strength, from a whisper to a scream

D5               G5     D5         G5
Sell me down the river, and out to sea

D5                 F               G5                   Bb
Cast me adrift and set me to sail, Just one last kiss before raising hell

C            Dm    D            D5
  Beyond the pale,   Beyond the pale

[Then main riff twice over D5, Bb, G5, C sequence]
[Following verse chorus as above]

Heed to Neptune's calling deceived in fable and lore
Learn from treacherous bibles
Of murder, hate and war
Searching for the tears
In an ocean of rain
The yearning of the raging sea beckons once again

Sell me down the river, and out to sea
Cast me adrift and set me to sail
Just one last kiss before raising hell
Beyond the pale, beyond the pale

[Instrumental Bridge]

Gathering of the storm
And the winds are blowing wild
Sweeping over cross and creed, country, colour and child
Mother nature cries for love
Her children lost at sea
And as the waves take me away
Say a prayer for liberty

Sell me down the river
And out to sea
Cast me adrift and set me to sail
Just one last kiss before raising hell

C            Dm    C             Dm
  Beyond the pale,    beyond the pale

C            Dm    C             Dm
  Beyond the pale,    beyond the pale
            
Submit corrections


        Beyond The Pale lessons Hard to play? Try these video lessons and learn fast Beyond The Pale lessons
        
↑ Back to top | Tablatures and chords for acoustic guitar and electric guitar, ukulele, drums are parodies/interpretations of the original songs. You may use it for private study, scholarship, research or language learning purposes only