» » »

Missing Felimon - Englisera Bass

Artists:  A B C D E F G H I J K L M N O P Q R S T U V W X Y Z # 

Englisera Bass

(ver. 1) Click to play this song!
Missing Felimon
 Rating:
3.8/5 (5 votes)
                this is my first tab na ginawa.. 
sana magustohan nyo..
accurate po yan..
easy lng po yan..
ge po.. enjoy.
-CAPITAN_chicko


intro= 2x
|----------------4-7--------------------------------------------------|
|--------------5-----------2-5--------4-7-----------------------------|
|------2-5-2-----------3-3-------5--5---------------------------------|
|--3-3----------------------------------------------------------------|

verse

|----------------4-7--------------------------------------------------|
|--------------5-----------2-5--------4-7-----------------------------| 3x
|------2-5-2-----------3-3-------5--5---------------------------------|
|--3-3----------------------------------------------------------------|


|-------------------------------------------------------------------|
|-------------------------------------------------------------------|
|---7-----5------3--------------------------------------------------|
|-------------------------------------------------------------------|

chorus

|----------------4-7--------------------------------------------------|
|--------------5-----------2-5--------4-7-----------------------------| 3x
|------2-5-2-----------3-3-------5--5---------------------------------|
|--3-3----------------------------------------------------------------|


|-------------------------------------------------------------------|
|-------------------------------------------------------------------|
|---7-----5------3--------------------------------------------------|
|-------------------------------------------------------------------|
            
Submit corrections

↑ Back to top | Tablatures and chords for acoustic guitar and electric guitar, ukulele, drums are parodies/interpretations of the original songs. You may use it for private study, scholarship, research or language learning purposes only