Home » M » Mirah »

Mirah - 100 Knives Tabs

Artists:  A B C D E F G H I J K L M N O P Q R S T U V W X Y Z # 

100 Knives Tabs

(ver. 1) Click to play this song!
Mirah
[Intro]
 
F#|----------------------------------------------------|
C#|-<7>---------<7>------------------------------------|
G#|-------------------------<7>---------<7>------------|
D |----------------------------------------------------|
A |----------------------------------------------------|
E |--7---7---7---7---7---7---7---7---7---7---7---7-----| x4
 
 
[Verse 1 and Pre-chorus 1]
Guitar 1
 
F#|----------------------------------------------------|
C#|-<7>---------<7>------------------------------------|
G#|-------------------------<7>---------<7>------------|
D |----------------------------------------------------|
A |----------------------------------------------------|
E |--7---7---7---7---7---7---7---7---7---7---7---7-----| x22
 
Guitar 2
The second guitar plays slight variations on this throughout the verse and pre-chorus and last chorus:
 
F#|------------<12>------------------------------------|
C#|-<7>----------------<7>-----------------------------|
G#|-------------------------<7>---------<7>------------|
D |----------------------------------------------------|
A |----------------------------------------------------|
E |----------------------------------------------------|
 
F#|------------<12>------------------------------------|
C#|-<7>----------------<7>-----------------------------|
G#|-<7>---------<7>---------<7>---------<7>------------|
D |----------------------------------------------------|
A |----------------------------------------------------|
E |----------------------------------------------------| x11
 
 
[Chorus]
Guitar 1
 
F#|----------------------------------------------------|
C#|----------------------------------------------------|
G#|--7-----------5-------------------------------------|
D |--------------------------8-----------8-------------|
A |----------------------------------------------------|
E |--7---7---7---7---7---7---7---7---7---7---7---7-----|
 
F#|----------------------------------------------------|
C#|--------------------------7-----------7-------------|
G#|--7-----------5-------------------------------------|
D |----------------------------------------------------|
A |----------------------------------------------------|
E |--7---7---7---7---7---7---7---7---7---7---7---7-----| x4
 
Guitar 2
 
F#|----------------------------------------------------|
C#|----------------------------------------------------|
G#|--7-----------5\---------\2-----------2-------------|
D |----------------------------------------------------|
A |--------------------------2-----------2-------------|
E |--7-----------7-------------------------------------|
 
F#|----------------------------------------------------|
C#|--------------------------7-----------7-------------|
G#|--7-----------5-------------------------------------|
D |----------------------------------------------------|
A |--------------------------7-----------7-------------|
E |--7-----------7-------------------------------------| x4
 
 
[Post-chorus]
 
F#|----------------------------------------------------|
C#|-<7>---------<7>------------------------------------|
G#|-------------------------<7>---------<7>------------|
D |----------------------------------------------------|
A |----------------------------------------------------|
E |--7---7---7---7---7---7---7---7---7---7---7---7-----| x4
 
 
[Verse 2 and Pre-chorus 2]
Guitar 1
 
F#|----------------------------------------------------|
C#|-<7>---------<7>------------------------------------|
G#|-------------------------<7>---------<7>------------|
D |----------------------------------------------------|
A |----------------------------------------------------|
E |--7---7---7---7---7---7---7---7---7---7---7---7-----| x22
 
Guitar 2
The second guitar plays slight variations on this throughout the verse and pre-chorus and last chorus:
 
F#|------------<12>------------------------------------|
C#|-<7>----------------<7>-----------------------------|
G#|-------------------------<7>---------<7>------------|
D |----------------------------------------------------|
A |----------------------------------------------------|
E |----------------------------------------------------|
 
F#|------------<12>------------------------------------|
C#|-<7>----------------<7>-----------------------------|
G#|-<7>---------<7>---------<7>---------<7>------------|
D |----------------------------------------------------|
A |----------------------------------------------------|
E |----------------------------------------------------| x11
 
 
[Chorus 2]
Guitar 1
 
F#|----------------------------------------------------|
C#|----------------------------------------------------|
G#|--7-----------5-------------------------------------|
D |--------------------------8-----------8-------------|
A |----------------------------------------------------|
E |--7---7---7---7---7---7---7---7---7---7---7---7-----|
 
F#|----------------------------------------------------|
C#|--------------------------7-----------7-------------|
G#|--7-----------5-------------------------------------|
D |----------------------------------------------------|
A |----------------------------------------------------|
E |--7---7---7---7---7---7---7---7---7---7---7---7-----| x4
 
Guitar 2
 
F#|----------------------------------------------------|
C#|----------------------------------------------------|
G#|--7-----------5\---------\2-----------2-------------|
D |----------------------------------------------------|
A |--------------------------2-----------2-------------|
E |--7-----------7-------------------------------------|
 
F#|----------------------------------------------------|
C#|--------------------------7-----------7-------------|
G#|--7-----------5-------------------------------------|
D |----------------------------------------------------|
A |--------------------------7-----------7-------------|
E |--7-----------7-------------------------------------| x4
 
 
[Outro]
 
F#|----------------------------------------------------|
C#|--7-----------7-------------------------------------|
G#|--------------------------7-----------7-------------|
D |----------------------------------------------------|
A |----------------------------------------------------|
E |--7---7---7---7---7---7---7---7---7---7---7---7-----| x4
 
F#|----------------------------------------------------|
C#|--7-----------7-----------7-----------7-------------|
G#|----------------------------------------------------|
D |----------------------------------------------------|
A |----------------------------------------------------|
E |--7---7---7---7---7---7---7---7---7---7---7---7-----|
 
F#|--5-----------5-----------5-----------5-------------|
C#|----------------------------------------------------|
G#|----------------------------------------------------|
D |----------------------------------------------------|
A |----------------------------------------------------|
E |--7---7---7---7---7---7---7---7---7---7---7---7-----|
 
F#|--9-----------9-----------9-----------9-------------|
C#|----------------------------------------------------|
G#|----------------------------------------------------|
D |----------------------------------------------------|
A |----------------------------------------------------|
E |--7---7---7---7---7---7---7---7---7---7---7---7-----|
 
F#|--9-----------9-----------9-------------------------|
C#|----------------------------------------------------|
G#|----------------------------------------------------|
D |----------------------------------------------------|
A |----------------------------------------------------|
E |--7---7---7---7---7---7---7-------------------------|
            
Submit corrections

↑ Back to top | Tablatures and chords for acoustic guitar and electric guitar, ukulele, drums are parodies/interpretations of the original songs. You may use it for private study, scholarship, research or language learning purposes only