» » »

Miracle Of Sound - Fire In Your Hole Chords

Artists:  A B C D E F G H I J K L M N O P Q R S T U V W X Y Z # 

Fire In Your Hole Chords

(ver. 1) Click to play this song!
Miracle Of Sound
 Rating:
4.3/5 (24 votes)

 Fire In Your Hole lessons Tabs too difficult? Try these video lessons and learn fast
 
                [Intro]
   E (strum once)                           E (strum once)
   1 + 2 + 3  + 4  +   1 + 2 + 3  + 4  +    1 + 2 + 3  + 4  +   1 + 2 + 3  + 4  +
e|---0---------0-----|---0---------0------|---0---------0-----|---0---------0------|
B|-----3-----3---3---|-----3-----3---3----|-----3-----3---3---|-----3-----3---3----|
G|-1-----1-2-------2-|-0-----0-2-------2--|-1-----1-2-------2-|-0-----0-2-------2--|
D|-------------------|--------------------|-------------------|--------------------|
A|-------------------|--------------------|-------------------|--------------------|
E|-------------------|--------------------|-------------------|--------------------|

    
Woo!

   E (strum once)
   1   +   2   +  3  +   4   +   1   +   2   +  3  +   4 +
e|-----------------------------|---------------------------|
B|-----------------------------|---------------------------|
G|-----------------------------|---------------------------|
D|-----------------5-7b9-7-5---|-----------------5-7-5-----|
A|-5-7-7-5-7-----------------7-|-5-7-7-5-7-------------7---|
E|-----------5-6-7-------------|-----------5-6-7-----------|
   E (strum once)
   1   +   2   +  3  +   4   +   1   +   2   +  3  +   4 +
e|-----------------------------|---------------------------|
B|-----------------------------|---------------------------|
G|-----------------------------|---------------------------|
D|-----------------5-7b9-7-5---|-----------------5-7-5-----|
A|-5-7-7-5-7-----------------7-|-5-7-7-5-7-------------7---|
E|-----------5-6-7-------------|-----------5-6-7-----------|


[Verse 1]
           E                     A
Well I'm a foul-mouth, deranged, alcoholic space pirate
G              A
Livin' in disarray
        E                     A
I got a p**sed off cybernetic robot friend
    G                          A
And man, we're gonna ruin your day

[Pre-Chorus]
      E                              A
Crash landed on this planet and some psycho attacked us
      G                                    A
So we shot him in the balls and kicked him into a cactus
      E                            A
Now a thousand angry mutants wanna come out and play
    C                            D
All hell is breakin' loose and I like it this way!

[Chorus]
Cause there's a
E
Storm comin'!
D
Bullets gettin hot, hear those
G
Guns drummin'
A
Somebody's gettin' shot, there's a
E
Storm comin'!
D
About to lose control of your
G              A
Rear plumbing
             E    D G
Fire in your hole!
     A                 E    D G A
Woaaaaah, fire in your hole!

[Verse 2]
      E                        A
Got a cold, hard grudge and revenge is the goal
          G                      A
Now it's time to sing the murder blues
         E                   A
Got your name etched into my brain and my soul
    G                     A
Sarrano, time to pay your dues

[Pre-Chorus]
E                             A
Sixty thousand ways for these psychos to die
       G                                A
Bottle rocket up your butt and send you into the sky
         E                                     A
Kick you off of cliffs and buildings, laugh at you as you fall
       C                          D
Take a power drill and skewer you into a wall!

[Chorus]
Cause there's a
E
Storm comin'!
D
Bullets gettin hot, hear those
G
Guns drummin'
A
Somebody's gettin' shot, there's a
E
Storm comin'!
D
About to lose control of your
G              A
Rear plumbing
             E    D G
Fire in your hole!
     A                 E    D G A
Woaaaaah, fire in your hole!
             E    D    G      A
Fire in your hoooooooooooole
             E    D    G      A
Fire in your hoooooooooooole

[Verse 3]
       C
Now we stumbled on a girl named Trischka
        Am
Another lunatic a-for our crew
            C
She keeps threatenin' to murder my manly bits
     Am                           B
Lady what the hell is wrong with you?

[Instrumental/Solo]
   E (strum once)
   1   +   2   +  3  +   4   +   1   +   2   +  3  +   4 +
e|-----------------------------|---------------------------|
B|-----------------------------|---------------------------|
G|-----------------------------|---------------------------|
D|-----------------5-7b9-7-5---|-----------------5-7-5-----|
A|-5-7-7-5-7-----------------7-|-5-7-7-5-7-------------7---|
E|-----------5-6-7-------------|-----------5-6-7-----------|
   E (strum once)
   1   +   2   +  3  +   4   +   1   +   2   +  3  +   4 +
e|-----------------------------|---------------------------|
B|-----------------------------|---------------------------|
G|-----------------------------|---------------------------|
D|-----------------5-7b9-7-5---|-----------------5-7-5-----|
A|-5-7-7-5-7-----------------7-|-5-7-7-5-7-------------7---|
E|-----------5-6-7-------------|-----------5-6-7-----------|
             That's right... comin' for ya!      Woo!

[Chorus]
Cause there's a
E
Storm comin'!
D
Bullets gettin hot, hear those
G
Guns drummin'
A
Somebody's gettin' shot, there's a
E
Storm comin'!
D
About to lose control of your
G              A
Rear plumbing
             E    D G
Fire in your hole!
     A                 E    D G A
Woaaaaah, fire in your hole!

[Outro] 
              E    D    G     A
Fire in your hoooooooooooole
              E    D    G     A
Fire in your hoooooooooooole
              E
(Fire in your hole)

            
Submit corrections


        Fire In Your Hole lessons Hard to play? Try these video lessons and learn fast Fire In Your Hole lessons
        
↑ Back to top | Tablatures and chords for acoustic guitar and electric guitar, ukulele, drums are parodies/interpretations of the original songs. You may use it for private study, scholarship, research or language learning purposes only