» » »

Minus The Bear - What About The Boat Tabs

Artists:  A B C D E F G H I J K L M N O P Q R S T U V W X Y Z # 

What About The Boat Tabs

(ver. 1) Click to play this song!
Minus The Bear
 Rating:
4.3/5 (19 votes)

 What About The Boat  lessons Tabs too difficult? Try these video lessons and learn fast
 
                [Verses]
David (Live, he samples this part onto the DL4 and overdubs that second bar. Later, he plays it sped up 2x for
       the "Ocean's Rising" part of the song)
e|--------------------|---------------------|
B|--------------------|---------------------|
G|--------------------|---------------------|
D|--------------------|------7b---9-11---7--|
A|-0-2-4b-----0-------|--7-9-----------9----|
D|----------4----0-2--|---------------------|
Jake:    
e|--------------------|
B|-------------2------|
G|----------4------2--|
D|---------------4----|
A|--------------------|
D|--------------------|

[1st Chorus]
All chords are fingered once, except the Bm (Listen to the song to get the rythm right!)These chords are 
what David plays, though Jake plays something similar, only down the neck.
   Bm   A    G#m  C#m E   A  
e|-----------------------------|
B|-0----0----0----5---0---14---|
G|-16---14---13---6---9---14---|
D|-16---14---13---6---9---14---|
A|-14---12---11---4---7---12---|
D|-----------------------------|  (2x)

[2nd Chorus]
Same as the last one.
   Bm   A    G#m  C#m E   A  
e|-0----0----0----0---0--------|
B|-0----0----0----5---0---14---|
G|-16---14---13---6---9---14---|
D|-16---14---13---6---9---14---|
A|-14---12---11---4---7---12---|
D|-----------------------------|  (2x)

   Bm   A    G#m  C#m E   
e|-0----0----0----0---0------------|
B|-0----0----0----5---0------------|
G|-16---14---13---6---9------------|
D|-16---14---13---6---9------------|
A|-14---12---11---4---7-----0------|
D|------------------------4---0~---|  (1x)            
Submit corrections


        What About The Boat  lessons Hard to play? Try these video lessons and learn fast What About The Boat  lessons
        
↑ Back to top | Tablatures and chords for acoustic guitar and electric guitar, ukulele, drums are parodies/interpretations of the original songs. You may use it for private study, scholarship, research or language learning purposes only