» » »

Minus The Bear - Lonely Gun Tabs

Artists:  A B C D E F G H I J K L M N O P Q R S T U V W X Y Z # 

Lonely Gun Tabs

(ver. 1) Click to play this song!
Minus The Bear
 Rating:
4/5 (4 votes)

 Lonely Gun lessons Tabs too difficult? Try these video lessons and learn fast
 
                Minus the Bear
Infinity Overhead



Tuning: Drop C# ( C# G# C# F# A# d# )


Intro
    Fade in
d#|---------|
A#|---------|
F#|---------|
C#|--5~~~---|
G#|--5~~~---|
C#|--5~~~---|



Verse
d#|---------------------------------------------------------------------------|
A#|---------------------------------------------------------------------------|
F#|------------------------------------------------------------------7--------|
C#|--5p0----7p0h8p0h10p0---xx0h7p0h8p0h10p0---xx0h7p0h8p0h10p0--10p8---8p7----|
G#|------------------------------------------------------------------------8--|
C#|---------------------------------------------------------------------------|

d#|----------------------------------------------------------------------|
A#|----------------------------------------------------------------------|
F#|----------------------------------------------------------------------|
C#|--5p0----7p0h8p0h10p0---xx0h7p0h8p0h10p0---xx0h7p0h8p0h10p0---0/3~~---|
G#|----------------------------------------------------------------------|
C#|----------------------------------------------------------------------|

Play these 2 lines twice



Chorus
d#|-----------------------------------------------|
A#|-----------------------------------------------|
F#|-----------------------------------------------|
C#|--5----------5----------3----------3-----------|
G#|--5---6-5----5---6-5----3---6-5----3---6-5-----|
C#|--5-------8--5-------8--3-------8--3-------8---|

d#|-----------------------------------------------|
A#|-----------------------------------------------|
F#|-----------------------------------------------|
C#|--5----------5----------3----------3~~---------|
G#|--5---6-5----5---6-5----3---6-5----3~~---------|
C#|--5-------8--5-------8--3-------8--3~~---------|



Repeat Verse

Repeat Chorus


Chorus part 2
d#|--------------------------------------------------------|
A#|--------------------------------------------------------|
F#|--------------------------------------------------------|
C#|--5--5--8-7----5--5--8-7----3--3--8-7----3--3--8-7------|
G#|--5--5--6-5-8--5--5--6-5-8--3--3--6-5-8--3--3--6-5-8----|
C#|--5--5------8--5--5------8--3--3------8--3--3------8----|

d#|-------------------------------------------------------|
A#|-------------------------------------------------------|
F#|-------------------------------------------------------|
C#|--5----8-7----5----8-7----3-------8-7----3~~-----|
G#|--5-------6-5-8--5-------6-5-8--3----6-5-8--3~~-----|
C#|--5-----------8--5-----------8--3-----------8--3~~-----|


Solo
   Guitar 1
d#|-------------------8h10--------------------8h10--------|
A#|-------------10h11-------------------10h11-------------|
F#|-10h12-------------------10h12-------------------------|
C#|-------10h12-------------------10h12-------------------| (x8)
G#|-------------------------------------------------------|
C#|-------------------------------------------------------|
   
   Guitar 2
d#|-------|-------|-------|-------|-------|-------|-------|-------|
A#|-------|-------|-------|-------|-------|-------|-------|-------|
F#|-------|-------|-------|-------|-------|-------|-------|-------|
C#|--5~~--|--3~~--|--8~~--|--3~~--|--5~~--|--3~~--|--8~~--|--3~~--|
G#|--5~~--|--3~~--|--8~~--|--3~~--|--5~~--|--3~~--|--8~~--|--3~~--|
C#|--5~~--|--3~~--|--8~~--|--3~~--|--5~~--|--3~~--|--8~~--|--3~~--|


Bridge
   (solo continues in background)
d#|-------------------------------------------------|
A#|-------------------------------------------------|
F#|---------------------------------3h5-3h5-3h5-----| x2
C#|--5----------5---------5-------------------------|
G#|----3-5--------3-5-------3-5---------------------|
C#|-------------------------------------------------|

d#|-------------------------------------------------|
A#|---------------------------------6h8-6h8-6h8-----|
F#|--7----------7---------7-------------------------|
C#|----5-7--------5-7-------5-7---------------------|
G#|-------------------------------------------------|
C#|-------------------------------------------------|

d#|-------------------------------------------------|
A#|-------------------------------------------------|
F#|---------------------------------3h5-3h5-3h5-----| x3
C#|--5----------5---------5-------------------------|
G#|----3-5--------3-5-------3-5---------------------|
C#|-------------------------------------------------|

d#|-------------------------------------------------------------------------|
A#|-------------------------------------------------------------------------|
F#|-3h5-3h5-3h5----3h5-3h5-3h5----3h5-3h5-3h5-------------------------------|
C#|----------------------------------------------8-7---------8-7------------|
G#|----------------------------------------------6-5-8-------6-5-8----------|
C#|--------------------------------------------------8-----------8----------|



Final chorus
d#|--------------------------------------------------------|
A#|--------------------------------------------------------|
F#|--------------------------------------------------------|
C#|--5--5--8-7----5--5--8-7----3--3--8-7----3--3--8-7------|
G#|--5--5--6-5-8--5--5--6-5-8--3--3--6-5-8--3--3--6-5-8----|
C#|--5--5------8--5--5------8--3--3------8--3--3------8----|

d#|-----------------------------------------------------------|
A#|-----------------------------------------------------------|
F#|-----------------------------------------------------------|
C#|--5----8-7----5----8-7----3-------8-7-------3----3---|
G#|--5-------6-5-8--5-------6-5-8--3----6-5-8-----3----3---|
C#|--5-----------8--5-----------8--3-----------8-----3----3---|

d#|--------------------------------------------------------|
A#|--------------------------------------------------------|
F#|--------------------------------------------------------|
C#|--5--5--8-7----5--5--8-7----3--3--8-7----3--3--8-7------|
G#|--5--5--6-5-8--5--5--6-5-8--3--3--6-5-8--3--3--6-5-8----|
C#|--5--5------8--5--5------8--3--3------8--3--3------8----|

d#|-------------------------------------------------------|
A#|-------------------------------------------------------|
F#|-------------------------------------------------------|
C#|--5----8-7----5----8-7----3-------8-7----3~~-----|
G#|--5-------6-5-8--5-------6-5-8--3----6-5-8--3~~-----|
C#|--5-----------8--5-----------8--3-----------8--3~~-----|

d#|-----------------------------------------------|
A#|-----------------------------------------------|
F#|-----------------------------------------------|
C#|--5----------5----------3----------3-----------|
G#|--5---6-5----5---6-5----3---6-5----3---6-5-----|
C#|--5-------8--5-------8--3-------8--3-------8---|

d#|-----------------------------------------------|
A#|-----------------------------------------------|
F#|-----------------------------------------------|
C#|--5----------5----------3----------3-----------|
G#|--5---6-5----5---6-5----3---6-5----3---6-5-----|
C#|--5-------8--5-------8--3-------8--3-------8---|

d#|---------------------|
A#|---------------------|
F#|---------------------|
C#|--5~~~~~~------------|
G#|--5~~~~~~------------|
C#|--5~~~~~~------------|
            
Submit corrections


        Lonely Gun lessons Hard to play? Try these video lessons and learn fast Lonely Gun lessons
        
↑ Back to top | Tablatures and chords for acoustic guitar and electric guitar, ukulele, drums are parodies/interpretations of the original songs. You may use it for private study, scholarship, research or language learning purposes only