» » »

Minus The Bear - Listing Tabs

Artists:  A B C D E F G H I J K L M N O P Q R S T U V W X Y Z # 

Listing Tabs

(ver. 1) Click to play this song!
Minus The Bear
 Rating:
4/5 (4 votes)

 Listing  lessons Tabs too difficult? Try these video lessons and learn fast
 
                E|--x-------x-------x-------x--------x--------|
B|--x-------x-------x-------x--------x--------|
G|--4-------5-------7-------12-------11-------|
D|--4--(x8)-5--(x8)-7--(x8)-12--(x4)-11--(x4)-|
A|--2-------3-------5-------10-------9--------|
E|--2-------3-------5-------10-------9--------|


Variation:

E|--x-------x-------x-------/x------x---------|
B|--x-------x-------x-------/x------x---------|
G|--4-------2-------5-------/7------4---------|
D|--4--(x8)-2--(x8)-5--(x7)-/7------4--(x12)--|
A|--2-------0-------3-------/5------2---------|
E|--2-------0-------3-------/5------2---------|

Chorus. Just listen for the strumming pattern, as it's easy to pick up:

E|--0------1------0------3------0------0------|
B|--1------2------0------3------1------1------|
G|--2------1------0------0------2------0------|
D|--2------0------2------0------2------2------|
A|--0------0------2------2------0------3------|
E|--0------0------0------3------0------0------|

(Verse)

(Chorus)

Bridge. Play all of this twice:

E|--------------------------------------------------------------------|
B|--------------------------------------------------------------------|
G|--------------------------------------------------------------------|
D|--2-2-----4-4-----5-5-----5-5-----2-2-----4-4-----5-5------7-7------|
A|------0-0-------------3-3-----3-3-----0-0--------------3-3-----5--5-|
E|--------------3-3-----------------------------3-3-------------------|(x2)

E|------------------------------------------------------------------|
B|------------------------------------------------------------------|
G|------------------------------------------------------------------|
D|--2-2-----4-4-----5-5-----5-5-----7-7-7-7-7-7-7-7-5-5-----7-7-----|
A|------0-0-------------3-3-----3-3---------------------3-3-----5-5-|
E|--------------3-3-------------------------------------------------|

(Chorus)            
Submit corrections


        Listing  lessons Hard to play? Try these video lessons and learn fast Listing  lessons
        
↑ Back to top | Tablatures and chords for acoustic guitar and electric guitar, ukulele, drums are parodies/interpretations of the original songs. You may use it for private study, scholarship, research or language learning purposes only