» » »

Minus The Bear - Last Kiss Tabs

Artists:  A B C D E F G H I J K L M N O P Q R S T U V W X Y Z # 

Last Kiss Tabs

(ver. 1) Click to play this song!
Minus The Bear
 Rating:
4.3/5 (15 votes)

 Last Kiss  lessons Tabs too difficult? Try these video lessons and learn fast
 
                [Intro]
The song starts with a sample which consists of David's part (see the tab below) reversed and sped up 2x 
on the DL4.
David:
e|-----------------------|--------------------------------|
B|-----t15------t15-t15--|-----t18------t16----------t13--|
G|-t7-------t7-----------|-t3-------t3----------t3--------|
D|-t7—-t12—-t7--t12-t12--|-t3--t15--t3-----t13--t3---t10--|
A|-t5-------t5-----------|-t1-------t1----------t1--------|
D|-t5-------t5-----------|-t1-------t1----------t1--------|

Jake (Pay attention to his rythm, it's played with a lot more swing than it's tabbed here):
e|---------------|-------------------|
B|---------------|-------------------|
G|-7-7-x-x-8-7---|-10-10-x-x-10-10\--|
D|-x-x-x-x-x-x---|-------x-x---------|
A|-5-5-x-x-5-5---|-8--8--x-x-8--8\---|
D|---------------|-------------------|

[Verse 1]
David (He plays this 2x, and the intro again 5x and then triggers the sample for the transition to the 
chorus):
e|-----------|------------|------------|-------------|
B|-----t15~--|------t18~--|------t15~--|------t13~---|
G|-t7--------|--t3--------|--t7--------|--t3---------|
D|-t7—-t12~--|--t3--t15~--|--t7--t12~--|--t3--t10~---|
A|-t5--------|--t1--------|--t5--------|--t1---------|
D|-t5--------|--t1--------|--t5--------|--t1---------|

Jake (He plays this twice, the intro part 5x and then keeps hitting the D octave for the transition):
e|-----------|------------|------------|-------------|
B|-----------|------------|------------|-------------|
G|--7--------|---3--------|---7--------|---3---------|
D|--x—-------|---x--------|---x--------|---x---------|
A|--5--------|---1--------|---5--------|---1---------|
D|-----------|------------|------------|-------------|

[Chorus 1]
David (Each chord counts as a bar. For Chorus 1 he hits the chords once the first time, and then strums
them in 8ths for the rest of the section): 
e|--------------------|-------------------------|
B|--------------------|-------------------------|
G|-3----7---10---15---|--15----7----10----15----|
D|-3----7---10---15---|--15----7----10----15----|
A|-1----5---8----13---|--13----5----8-----13----|
D|-1----5---8----13---|--13----5----8-----13----|

Jake (Just keep arpeggiating this shape for the entire chorus):
e|--------10-------------10-------|
B|------8----8---------8----8-----|
G|---10--------10---10---------10-|
D|-8--------------8---------------|
A|--------------------------------|
D|--------------------------------|

[Verse 2]
David (He plays this 2x, and the intro again 5x and then triggers the sample for the transition 
to the chorus):
e|-----------|------------|------------|-------------|
B|-----t15~--|------t18~--|------t15~--|------t13~---|
G|-t7--------|--t3--------|--t7--------|--t3---------|
D|-t7—-t12~--|--t3--t15~--|--t7--t12~--|--t3--t10~---|
A|-t5--------|--t1--------|--t5--------|--t1---------|
D|-t5--------|--t1--------|--t5--------|--t1---------|

Jake (He plays this twice, the intro part 5x and then keeps hitting the D octave for the transition):
e|-----------|------------|------------|-------------|
B|-----------|------------|------------|-------------|
G|--7--------|---3--------|---7--------|---3---------|
D|--x—-------|---x--------|---x--------|---x---------|
A|--5--------|---1--------|---5--------|---1---------|
D|-----------|------------|------------|-------------|

[Chorus 2]
David (Each chord counts as a bar. For Chorus 2 he's strumming them in 8ths): 
e|--------------------|-------------------------|
B|--------------------|-------------------------|
G|-3----7---10---15---|--15----7----10----15----|
D|-3----7---10---15---|--15----7----10----15----|
A|-1----5---8----13---|--13----5----8-----13----|
D|-1----5---8----13---|--13----5----8-----13----|

Jake (Just keep arpeggiating this shape for the entire chorus):
e|--------10-------------10-------|
B|------8----8---------8----8-----|
G|---10--------10---10---------10-|
D|-8--------------8---------------|
A|--------------------------------|
D|--------------------------------|

[Bridge]
(After you repeat the Verse and Chorus once, you play this a couple of times, and trigger the sample 
for the transition to the chorus again)
David:
e|--------------------|-------------------|
B|--------------15~~--|-------------------|
G|----0----0----------|-------------------|
D|--------------------|----15-----13-12~--|
A|--------------------|-------------------|
D|-17---17---17-------|-13----13--13-12~--|
Jake:
e|---------------|-------------------|
B|---------------|-------------------|
G|-7-7-x-x-8-7---|-10-10-x-x-10-10\--|
D|-x-x-x-x-x-x---|-------x-x---------|
A|-5-5-x-x-5-5---|-8--8--x-x-8--8\---|
D|---------------|-------------------|

[Chorus 3]
David (Again, one chord equals a bar and he's playing them in 8ths): 
e|--------------------|-------------------------|
B|--------------------|-------------------------|
G|-3----7---10---15---|--15----7----10----15----|
D|-3----7---10---15---|--15----7----10----15----|
A|-1----5---8----13---|--13----5----8-----13----|
D|-1----5---8----13---|--13----5----8-----13----|
Jake (Just keep arpeggiating this shape for the entire chorus):
e|--------10-------------10-------|
B|------8----8---------8----8-----|
G|---10--------10---10---------10-|
D|-8--------------8---------------|
A|--------------------------------|
D|--------------------------------|

[Outro]
(You just play this over and over til the end and end with the octave on the right hand 
sliding down the fretboard):
e|------------------------|
B|-----t15------t15-t15---|
G|-t7-------t7------------|
D|-t7—-t12--t7--t12-t12---|
A|-t5-------t5------------|
D|-t5-------t5------------|
Jake:
e|---------------|
B|---------------|
G|-7-7-x-x-8-7---|
D|-x-x-x-x-x-x---|
A|-5-5-x-x-5-5---|
D|---------------|
            
Submit corrections


        Last Kiss  lessons Hard to play? Try these video lessons and learn fast Last Kiss  lessons
        
↑ Back to top | Tablatures and chords for acoustic guitar and electric guitar, ukulele, drums are parodies/interpretations of the original songs. You may use it for private study, scholarship, research or language learning purposes only