» » »

Minus The Bear - Invisible Tabs

Artists:  A B C D E F G H I J K L M N O P Q R S T U V W X Y Z # 

Invisible Tabs

(ver. 1) Click to play this song!
Minus The Bear
 Rating:
4.3/5 (20 votes)

 Invisible  lessons Tabs too difficult? Try these video lessons and learn fast
 
                [Intro]
Jake starts playing a little while after David starts tapping away. You have to listen to the song to get 
the repetitions right, don't forget!
Jake: (Aside from some fills and the chorus, he basically plays this pattern the whole song)
e|-------------|
B|-------------|
G|-4-4---7-7---|
D|-2-2---5-5---|
A|-2-2---5-5---|
D|-2-2---5-5---|

David (He's tapping much faster than notated here, for the sake of being easier to read):
e|------------------|
B|---t7--t7--t7--t7-|
G|------------------|
D|-t7—-t7-—t7-—t7---| 
A|------------------|
D|------------------|

[Verses]
Jake plays the same part as the intro
David:
With your left hand, tap the E string on the 2nd and 5th frets in the same rythm as Jake's playing. 
With your right hand, you're gonna be tapping these 4 shapes:
e|------------------|          |----------------------|----------------------|----t15---t15--|
B|---t7--t7--t7--t7-|          |---t10--t10--t10--t10-|---t12--t12--t12--t12-|---------------|
G|------------------|          |----------------------|----------------------|-t12---t12-----|
D|-t7—-t7-—t7-—t7---| (8 bars) |-t9—--t9-—-t9-—-t9----|-t12—-t12-—t12-—t12---|---------------|
A|------------------|          |----------------------|----------------------|---------------|
D|------------------|          |----------------------|----------------------|---------------|

(And again: he's tapping much faster than notated, pay attention to the song to get it right!)


[Chorus](David and Jake play the same thing, no delay for David!):
e|--------------------------------|
B|-12----7-----10----5-5-5--------|
G|--------------------------------|
D|-12----7-----9-----5-5-5--------|
A|--------------------------------|  (4x - Every 2nd time the chorus is played, that open D is ringed at
D|-12----7-----9-----5-5-5--(0)---|    the end of the bar)

[Bridge]
David:
e|---------------------------------------|--------------------------t15--------t15-----|
B|----t7-------t7-------t10-------t10----|----t12-------t12----------------------------|
G|---------------------------------------|------------------------------t12--------t12-|
D|-------t7-------t7--------t9--------t9-|-------t12--------t12------------------------|
A|---------------------------------------|---------------------------------------------|
D|-t2-------t2-------t5--------t5--------|-t7--------t7----------t9---------t9---------|

Jake:
e|--------------|                             e|------------------|
B|--------------|                             B|-7--7-------------|
G|--------------|                             G|-9b-9b------------|
D|--------------|                             D|------------------|
A|--------------|  (4x, and then you end with A|------------------| )
D|-0~-----7--9--|                             D|------------------|

[Verses]
Jake plays the same part as the intro
David:
With your left hand, tap the E string on the 2nd and 5th frets in the same rythm as Jake's playing. 
With your right hand, you're gonna be tapping these 4 shapes:
e|------------------|          |----------------------|----------------------|----t15---t15--|
B|---t7--t7--t7--t7-|          |---t10--t10--t10--t10-|---t12--t12--t12--t12-|---------------|
G|------------------|          |----------------------|----------------------|-t12---t12-----|
D|-t7—-t7-—t7-—t7---| (8 bars) |-t9—--t9-—-t9-—-t9----|-t12—-t12-—t12-—t12---|---------------|
A|------------------|          |----------------------|----------------------|---------------|
D|------------------|          |----------------------|----------------------|---------------|

[Chorus](David and Jake play the same thing, no delay for David!):
e|--------------------------------|
B|-12----7-----10----5-5-5--------|
G|--------------------------------|
D|-12----7-----9-----5-5-5--------|
A|--------------------------------|  (4x - Every 2nd time the chorus is played, that open D is ringed at
D|-12----7-----9-----5-5-5--(0)---|    the end of the bar)

[Bridge]
David:
e|---------------------------------------|--------------------------t15--------t15-----|
B|----t7-------t7-------t10-------t10----|----t12-------t12----------------------------|
G|---------------------------------------|------------------------------t12--------t12-|
D|-------t7-------t7--------t9--------t9-|-------t12--------t12------------------------|
A|---------------------------------------|---------------------------------------------|
D|-t2-------t2-------t5--------t5--------|-t7--------t7----------t9---------t9---------|
Jake:
e|--------------|                             e|------------------|
B|--------------|                             B|-7--7-------------|
G|--------------|                             G|-9b-9b------------|
D|--------------|                             D|------------------|
A|--------------|  (4x, and then you end with A|------------------| )
D|-0~-----7--9--|                             D|------------------|

[Chorus](David and Jake play the same thing, no delay for David!):
e|--------------------------------|
B|-12----7-----10----5-5-5--------|
G|--------------------------------|
D|-12----7-----9-----5-5-5--------|
A|--------------------------------|  (4x - Every 2nd time the chorus is played, that open D is ringed at
D|-12----7-----9-----5-5-5--(0)---|    the end of the bar)

[Coda]
David plays his verse part without repeating the first bar
Jake's plays his main part alternating with theses fills:
e|---------------------|-------------------------------|-----------------------|
B|-7------7--7---------|-10-10-10--7-7-7---------------|-7---------------------|
G|-9b11r--9--9b11r--7~-|------------------9-9-9--7-7-7-|-9b11r--7------7-----7-|
D|---------------------|-------------------------------|-----------7h9---7h9---|
A|---------------------|-------------------------------|-----------------------|
D|---------------------|-------------------------------|-----------------------|

e|---------10----------------------|
B|-10b12r-----10~~-----------------|
G|-----------------7h9-------------|
D|-----------------------7h9-7h9\--|
A|---------------------------------|
D|---------------------------------|            
Submit corrections


        Invisible  lessons Hard to play? Try these video lessons and learn fast Invisible  lessons
        
↑ Back to top | Tablatures and chords for acoustic guitar and electric guitar, ukulele, drums are parodies/interpretations of the original songs. You may use it for private study, scholarship, research or language learning purposes only