» » »

Minus The Bear - Hey Wanna Throw Up Get Me Naked Tabs

Artists:  A B C D E F G H I J K L M N O P Q R S T U V W X Y Z # 

Hey Wanna Throw Up Get Me Naked Tabs

(ver. 1) Click to play this song!
Minus The Bear
 Rating:
4.2/5 (23 votes)

 Hey Wanna Throw Up Get Me Naked  lessons Tabs too difficult? Try these video lessons and learn fast
 
                Tuning:DADGBE

  'Let's get the f**k out of here...' until the SECOND part of the song/verse
Played with slight delay
HOLD FIGURES (F) WITH LEFT HAND AND TAP WITH RIGHT
e|--------------------------------------------------------------------------------------|
B|--------------------------------------------------------------------------------------|
G|--------------------------------------------------------------------------------------|
D|--5~----5~----5~--4b----0~------------------------------------------------------------|
A|--5~----5~----5~--------5~------------------------------------------------------------|
D|--5~----5~----5~--------0~------------------------------------------------------------|
  FIGURES ARE (F)
e|-----------------------------------------------------------|
B|-----------------------------------------------------------|
G|-----------------------------------------------------------|
D|-(F)-5---9----------------12p5~----------------------------|
A|-(F)-5---9--------------------12p5~---------17p5-----16p9--|
D|-(F)-5---9------------------------12p5~--------------------|

e|-------------------------------------------------|
B|-(F)-7-------------------15p7~-14p7~-------------|
G|-(F)-7------------------------------14p7~-14p7~--|
D|-------------------------------------------------|
A|-------------------------------------------------|
D|-------------------------------------------------|
   NEW VERSE BEFORE 'he's gone for three nights, c'mon'
e|--------------------------------------------------------|
B|--------------------------------------------------------|
G|--------------------------------------------------------|
D|---0~--0--4--0--4--0--4--0--4--0-4-----4-4-4-4-4-4-4-4--|
A|---5~--5-----5-----5-----5-----5-------5-5-5-5-5-5-5-5--|
D|---0~--0-----0-----0-----0-----0-------0-0-0-0-0-0-0-0--|
   HE'S GONE FOR THREE NIGHTS, C'MON..... C'MON C'MON C'MON
e|----------------------------------------------------|
B|----------------------3-------------------------10--|
G|-------------------------4--------------6/7---7/9---|
D|--0----5-----------------------4--------4/5---5/7---|
A|--5-x9-5-x8---------5-------5-----------4/5---5/7---|
D|--0----5--------------------------------4/5---5/7---|

e|-------------------------------------------------------------------------------------------------|
B|--------3p0--------3p0--3p0-----3p0-------3p0---------3p0--3p0----3p0----------------------------|
G|--------0----------0----0-------0---------0-----------0----0------0------------------------------|
D|-------------------------------------------------------------------------------------------------|
A|--5--5~------5--5~------------------5--5~-------5--5~--------------------------------------------|
D|--5--5~------5--5~------------------5--5~-------5--5~--------------------------------------------|

e|-----------------------------------------------|
B|-----3/5p0------3/5p0--------3/5p0------3/5p0--|
G|-----2/4p0------2/4p0--------2/4p0------2/4p0--|
D|-----------------------------------------------|
A|--2~---------2~-----------2~---------2~--------|
D|--2~---------2~-----------2~---------2~--------|
 I GOT SOMEWHERE ELSE TO BE                ENDS ON
e|-------------------------------------------------------------------------------------|
B|------------10-------------------------10\-------------------------------------------|
G|--6/7-----7/9--------------------------9-\-------------------------------------------|
D|--4/5-----5/7--------------------------7-\-------------------------------------------|
A|--4/5-----5/7--------------------------7-\-------------------------------------------|
D|--4/5-----5/7--------------------------7-\-------------------------------------------|

            
Submit corrections


        Hey Wanna Throw Up Get Me Naked  lessons Hard to play? Try these video lessons and learn fast Hey Wanna Throw Up Get Me Naked  lessons
        
↑ Back to top | Tablatures and chords for acoustic guitar and electric guitar, ukulele, drums are parodies/interpretations of the original songs. You may use it for private study, scholarship, research or language learning purposes only