» » »

Minus The Bear - Game Needed Me Tabs

Artists:  A B C D E F G H I J K L M N O P Q R S T U V W X Y Z # 

Game Needed Me Tabs

(ver. 1) Click to play this song!
Minus The Bear
 Rating:
4/5 (4 votes)

 Game Needed Me lessons Tabs too difficult? Try these video lessons and learn fast
 
                |-5---8--5---8--12---12--10---10-| 
|--6--6---6--6---13--13---11--11-| 
|-----7------7-------14-------12-| 
|--------------------------------| 
|--------------------------------| 
|--------------------------------|

|-5---8--5---8-8/10-12---12--10---10-| 
|--6--6---6--6-------13--13---11--11-| 
|-----7------7-----------14-------12-| 
|------------------------------------| 
|------------------------------------| 
|------------------------------------|

The "whistling effect" is Dave swinging his whammy bar without pushing it at first, with gobs of delay.

|-12-12-15-12-12--10-10-13-10-10-| 
|-13-13-13-13-15--11-11-11-11-13-|
|-14-14-14-14-14--12-12-12-12-12-| Whammy is worked at times. 
|--------------------------------| 
|--------------------------------| 
|--------------------------------|

|-5-5-8-5-5--5-5-8-5-5--12-12-15-12-12--10-10-13-10-10-| 
|-6-6-6-6-8--6-6-6-6-8--13-13-13-13-15--11-11-11-11-13-| 
|/7-7-7-7-7--7-7-7-7-7--14-14-14-14-14--12-12-12-12-12-| 
|------------------------------------------------------| 
|------------------------------------------------------| 
|------------------------------------------------------|

Ends with:

|-12-12-15-12-12--10-10-13/-------------| 
|-13-13-13-13-15--11-11-11/-slide down--|
|-14-14-14-14-14--12-12-12/-------------| 
|---------------------------------------| 
|---------------------------------------| 
|---------------------------------------|
            
Submit corrections


        Game Needed Me lessons Hard to play? Try these video lessons and learn fast Game Needed Me lessons
        
↑ Back to top | Tablatures and chords for acoustic guitar and electric guitar, ukulele, drums are parodies/interpretations of the original songs. You may use it for private study, scholarship, research or language learning purposes only