Home » M » Minor Threat »

Minor Threat - I Dont Want To Here It Tabs

Artists:  A B C D E F G H I J K L M N O P Q R S T U V W X Y Z # 

I Dont Want To Here It Tabs

(ver. 1) Click to play this song!
Minor Threat
----------------------------------------------------------------------------
--------------------------I_Don't_Want_To_Hear_It---------------------------
----------------------------------------------------------------------------

A tribute to the punk movement...

Tuning: Standard

[Intro]

e|----------------|---------|----------------------------|
b|----only bass---|---------|----------------------------|
g|----------------|44449999-|----------------4-4-4-9-9-9-|
d|----------------|44449999-|4-4-2-2-4-4-4-4-4-4-4-9-9-9-|
a|----------------|22227777-|4-4-2-2-4-4-4-4-2-2-2-7-7-7-|
E|----------------|---------|2-2-0-0-2-2-2-2-------------|

[Verse 1]

 |=============4x=============|
e|----------------------------|
b|----------------------------|
g|----------------4-4-4-9-9-9-|
d|4-4-2-2-4-4-4-4-4-4-4-9-9-9-|
a|4-4-2-2-4-4-4-4-2-2-2-7-7-7-|
E|2-2-0-0-2-2-2-2-------------|

[Chorus 1]

 |==============3x=============|
e|-----------------------------|-------------------------------|
b|-----------------------------|-------------------------------|
g|11111111-9-------------------|11111111-9---------------------|
d|11111111-9--9-11111111-9--4--|11111111-9--9-1111111199999999-|
a|-9-9-9-9-7--9-11111111-9--4--|-9-9-9-9-7--9-1111111199999999-|
E|------------7--9-9-9-9-7--2--|------------7--9-9-9-977777777-|

[Verse 2]

 |=============4x=============|
e|----------------------------|
b|----------------------------|
g|----------------4-4-4-9-9-9-|
d|4-4-2-2-4-4-4-4-4-4-4-9-9-9-|
a|4-4-2-2-4-4-4-4-2-2-2-7-7-7-|
E|2-2-0-0-2-2-2-2-------------|

[Chorus 2]

 |==============3x=============|
e|-----------------------------|-------------------------------|
b|-----------------------------|-------------------------------|
g|11111111-9-------------------|11111111-9---------------------|
d|11111111-9--9-11111111-9--4--|11111111-9--9-1111111199999999-|
a|-9-9-9-9-7--9-11111111-9--4--|-9-9-9-9-7--9-1111111199999999-|
E|------------7--9-9-9-9-7--2--|------------7--9-9-9-977777777-|

[Break]

 |=============4x=============|
e|----------------------------|
b|----------------------------|
g|----------------4-4-4-9-9-9-|
d|4-4-2-2-4-4-4-4-4-4-4-9-9-9-|
a|4-4-2-2-4-4-4-4-2-2-2-7-7-7-|
E|2-2-0-0-2-2-2-2-------------|

[Verse 3]

 |=============4x=============|
e|----------------------------|
b|----------------------------|
g|----------------4-4-4-9-9-9-|
d|4-4-2-2-4-4-4-4-4-4-4-9-9-9-|
a|4-4-2-2-4-4-4-4-2-2-2-7-7-7-|
E|2-2-0-0-2-2-2-2-------------|

[Ending]

 |==============3x=============|
e|-----------------------------|-------------------------------|---|
b|-----------------------------|-------------------------------|---|
g|11111111-9-------------------|11111111-9---------------------|---|
d|11111111-9--9-11111111-9--4--|11111111-9--9-1111111111111111-|11-|
a|-9-9-9-9-7--9-11111111-9--4--|-9-9-9-9-7--9-1111111111111111-|11-|
E|------------7--9-9-9-9-7--2--|------------7--9-9-9-9-9-9-9-9-|-9-|
            
Submit corrections

↑ Back to top | Tablatures and chords for acoustic guitar and electric guitar, ukulele, drums are parodies/interpretations of the original songs. You may use it for private study, scholarship, research or language learning purposes only