» » »

Ministry - Unsung Tabs

Artists:  A B C D E F G H I J K L M N O P Q R S T U V W X Y Z # 

Unsung Tabs

(ver. 1) Click to play this song!
Ministry
 Rating:
2/5 (30 votes)

 Unsung  lessons Tabs too difficult? Try these video lessons and learn fast
 
                Tuning: Dropped D

Intro:

e|--------------------------------------------------|
B|--------------------------------------------------|
G|--------------------------------------------------|
D|--------------------------------------------------|
A|-7-7-7-7--8--X-X-X-X-7--8--X-X-7--8--X-X-X-X-7--8-|
D|-7-7-7-7--8--X-X-X-X-7--8--X-X-7--8--X-X-X-X-7--8-|

Chorus:

e|--------------------|
B|--------------------|
G|--------------------|
D|--------------------|
A|-10-10-10-10--11--8-|
D|-10-10-10-10--11--8-|

Break:

e|----------------|
B|----------------|
G|----------------|
D|----------------|
A|-7-7-7-7--7-8---|
E|-7-7-7-7--7-8---|
   PMPM
            
Submit corrections


        Unsung  lessons Hard to play? Try these video lessons and learn fast Unsung  lessons
        
↑ Back to top | Tablatures and chords for acoustic guitar and electric guitar, ukulele, drums are parodies/interpretations of the original songs. You may use it for private study, scholarship, research or language learning purposes only