» » »

Ministry - Filth Pig Bass

Artists:  A B C D E F G H I J K L M N O P Q R S T U V W X Y Z # 

Filth Pig Bass

(ver. 1) Click to play this song!
Ministry
 Rating:
4.2/5 (5 votes)
                this song is quite easy

it's in D-drop sp you're gonna ahve to tune your E string down 2 frets

the bass is not as easy to hear as the guitar so I have written exactly when the bass is 
compared to the guitar so if you look at this and play the song it might make it easier 
hear how the bass goes

e|---------------------------------|
B|---------------------------------|
G|---------------------------------|
D|-3~~~~~~0~~----------------------|     <---guitar
A|-3~~~~~~0~~----------------------|
D|-3~~~~~~0~~----------------------|

G|---------------------------------|
D|---------------------------------|
A|---------------------------------|     <---bass
D|-0-33-0-3-0-3-33--0-33-0-3-0-3-33|

the tempo is quite slow
playing through the riff once takes about 10 secounds

the chorus is almost the same riff just one note changed

G|----------------|
D|----------------|
A|----------------|
D|-0-33-0-3-1-3-33|

that's it!
            
Submit corrections

↑ Back to top | Tablatures and chords for acoustic guitar and electric guitar, ukulele, drums are parodies/interpretations of the original songs. You may use it for private study, scholarship, research or language learning purposes only