Home » M » Minibosses »

Minibosses - Song C Tabs

Artists:  A B C D E F G H I J K L M N O P Q R S T U V W X Y Z # 

Song C Tabs

(ver. 1) Click to play this song!
Minibosses
|--------------------------------------------|
|--------------------------------------------|
|-----------2-2-2-2-2-6-6-6-6-6-6-6-6-6-6-6--|
|-2-2-2-2-2-2-2-2-2-2-6-6-6-6-6-6-6-6-6-6-6--|
|-2-2-2-2-2-0-0-0-0-0-4-4-4-4-4-4-4-4-4-4-4--|
|-0-0-0-0-0----------------------------------|


|----------------------------------------------------------|
|----------------------------------------------------------|
|-----------------2-----2-------4-----4-------5-----5------|
|---2-----2---------2-----2-------4-----4-------5-----5----|
|-----2-----2---0-----0-----0-2-----2-----2-3-----3-----3--|
|-0-----0-----0--------------------------------------------|


|----------------------------------------------|
|----------------------------------------------|
|-6-6-6-6-6-2-2-2-2-2-2-4-4-4-4-4-5-5-5-5-5-5--|
|-6-6-6-6-6-2-2-2-2-2-2-4-4-4-4-4-5-5-5-5-5-5--|
|-4-4-4-4-4-0-0-0-0-0-0-2-2-2-2-2-3-3-3-3-3-3--|
|----------------------------------------------|


|----------------------------------------------------------------|
|----------------------------------------------------------------|
|-6-6-6-6-6-6-6-6-6-6-6-6-6-6-6-6-6-6-6-6-6-6-6-6-6-6-6-6-6-6-6--|
|-6-6-6-6-6-6-6-6-6-6-6-6-6-6-6-6-6-6-6-6-6-6-6-6-6-6-6-6-6-6-6--|
|-4-4-4-4-4-4-4-4-4-4-4-4-4-4-4-4-4-4-4-4-4-4-4-4-4-4-4-4-4-4-4--|
|----------------------------------------------------------------|


|--------------------------------------------------------------------|
|--------------------------------------------------------------------|
|-6-6-6-6-6-6-4-4-4-4-4-2-2-2-2-7-7-7-7-7-7-7-7-6-6-6-6-6-4-4-4-4-4--|
|-6-6-6-6-6-6-4-4-4-4-4-2-2-2-2-7-7-7-7-7-7-7-7-6-6-6-6-6-4-4-4-4-4--|
|-4-4-4-4-4-4-2-2-2-2-2-0-0-0-0-5-5-5-5-5-5-5-5-4-4-4-4-4-2-2-2-2-2--|
|--------------------------------------------------------------------|


|----------------|
|----------------|
|-3-3-3-3-4-6-6--|
|-3-3-3-3-4-6-6--|
|-1-1-1-1-2-4-4--|
|----------------|



Legend
------

h = hammer-on; p = pull-off; b = bend; r = bend release; / = slide up/down; [5] = nat. harmonic; <5> = art. harmonic; ~ = vibrato; tr = trill; T = tap; TP = trem. picking; PM = palm muting; | = bar; || = double bar; ||o = repeat start; *|| = repeat end; *| = double bar (end); : = bar (freetime); d = tremolo bar dive; u = tremolo bar up; = = hold (bend or tremolo bar)
            
Submit corrections

↑ Back to top | Tablatures and chords for acoustic guitar and electric guitar, ukulele, drums are parodies/interpretations of the original songs. You may use it for private study, scholarship, research or language learning purposes only