Home » M » Milos Vukomanovic »

Milos Vukomanovic - The Train Tabs

Artists:  A B C D E F G H I J K L M N O P Q R S T U V W X Y Z # 

The Train Tabs

(ver. 1) Click to play this song!
Milos Vukomanovic
e|------5---5-------5---5---7-9-7-9-7-5-----5---5-------5---5---------------|
b|--5-7---7---7-5-7---7---7-------------5-7---7---7-5-7---7---7-5-7-5-------|
g|--------------------------------------------------------------------2-4-2-|
d|--------------------------------------------------------------------------|
a|--------------------------------------------------------------------------|
e|--------------------------------------------------------------------------|

e|------5---5-------5---5---7-9-7-9-7-5-----5---5-------5---5---------------|
b|--5-7---7---7-5-7---7---7-------------5-7---7---7-5-7---7---7-5-7-5-------|
g|--------------------------------------------------------------------2-4-2-|
d|--------------------------------------------------------------------------|
a|--------------------------------------------------------------------------|
e|--------------------------------------------------------------------------|

e|--------------------------|
b|------5-----------5-------|
g|--4-6---2-4-2-4-6---2-4-2-|
d|--------------------------|
a|--------------------------|
e|--------------------------|
            
Submit corrections

↑ Back to top | Tablatures and chords for acoustic guitar and electric guitar, ukulele, drums are parodies/interpretations of the original songs. You may use it for private study, scholarship, research or language learning purposes only