Home » M » Millencolin »

Millencolin - Vulcan Ears Tabs

Artists:  A B C D E F G H I J K L M N O P Q R S T U V W X Y Z # 

Vulcan Ears Tabs

(ver. 2) Click to play this song!
Millencolin
VULCAN EARS       by Millencolin (life on a plate)
-----------


Intro: 
              In a tiny spceship....

    A           E           G           D

e-|-------------------------------------------------|
B-|-------------------------------------------------|
G-|-------------9--9--9--9--11-11-11-11-7--7--7--7--|
D-|-7--7--7--7--9--9--9--9--11-11-11-11-7--7--7--7--|
A-|-7--7--7--7--7--7--7--7--9--9--9--9--5--5--5--5--|
E-|-5--5--5--5--------------------------------------|   2 times


I'd like to be there now... 

                          A   E   F#  D                E  

                     e-|-5-5-7-7-x-x-5-5--        ------------------|
                     B-|-5-5-9-9-7-7-7-7--  play  ------------------|
                     G-|-6-6-9-9-6-6-7-7--   6x   --9-9-9-9---------|
                     D-|-7-7-9-9-4-4-7-7--  ends  --9-9-9-9---------|
                     A-|------------------  w/... --7-7-7-7---------|
                     E-|------------------        ------------------|


     vulcan eyebrows, vulcan ears...

     D       E                           F#m

e-|-x-x-----x-x----------------------------------------------|
B-|-7-7-----9-9----------------------------------------------|
G-|-7-7-----9-9--------------11--11--11--11--11--11--11--11--|
D-|-7-7-----9-9--------------11--11--11--11--11--11--11--11--|
A-|-5-5-----7-7--------------9---9---9---9---9---9---9---9---|
E-|----------------------------------------------------------|


     no more sorrow, no more tears...

e-|-x-x-----x-x----------------------------------------------|
B-|-7-7-----9-9----------------------------------------------|
G-|-7-7-----9-9----------------------------------------------|
D-|-7-7-----9-9--------------4-4-4-4-------------------------|
A-|-5-5-----7-7----------------------7-4---------------------| 
E-|----------------------------------------------------------| 


repeat this part and go to 2nd verse (same chords as first). Play it
again, go intro and continue.

     vulcan eyebrows....

     D       E       F#m

e-|------------------------------------|
B-|-7-7-7---9-9-9----------------------|
G-|-7-7-7---9-9-9----11-11-11-11-11-11-|
D-|-7-7-7---9-9-9----11-11-11-11-11-11-|
A-|-5-5-5---7-7-7----9--9--9--9--9--9--|
E-|------------------------------------|

2nd guitar - there's a gliss here.

e-|--------------------------------------------------------------|
B-|--------------------------------------------------------------|
G-|--------------------------------------------------------------|
D-|-7-7-7-7-6-----4-4-4-4-4-------7-7-7-7-6-----4-------4--------|
A-|-----------7-------------7-4-------------7-----7-4-7---7-4-7--| 
E-|--------------------------------------------------------------|


e-|-----------------------------------------------------|
B-|-----------------------------------------------------|
G-|-----------------------------------------------------|
D-|-7-7-7-7-6-----4-4-4-4-4-------7-7-7-7-6-------6/7---|
A-|-----------7-------------7-4-------------7-----------| 
E-|-----------------------------------------------------|
            
Submit corrections

↑ Back to top | Tablatures and chords for acoustic guitar and electric guitar, ukulele, drums are parodies/interpretations of the original songs. You may use it for private study, scholarship, research or language learning purposes only