» » »

Miley Cyrus - We Cant Stop Bass

Artists:  A B C D E F G H I J K L M N O P Q R S T U V W X Y Z # 

We Cant Stop Bass

(ver. 1) Click to play this song!
Miley Cyrus
 Rating:
4/5 (4 votes)

 We Cant Stop lessons Tabs too difficult? Try these video lessons and learn fast
 
                -------------------------------------------------------------------------------
                                                   We Can't Stop - Miley Cyrus
-------------------------------------------------------------------------------
Tuning: E A D G 


Intro  0:00

                                             x2
G|---------------------------------------------|
D|-2-(ring)------------------------------------|
A|-----------------------4-(ring)-----0-(ring)-|
E|-----------4-(ring)--------------------------|


Verse  0:25

                                             x2
G|---------------------------------------------|
D|-2-(ring)------------------------------------|
A|-----------------------4-(ring)-----0-(ring)-|
E|-----------4-(ring)--------------------------|


Pre Chorus  0:48

G|-----------------------------------------------------------------|
D|-2-2-2-2-2-2-2-2-2-2-2-2-2-2-2-2---------------------------------|
A|-----------------------------------------------------------------|
E|---------------------------------4-4-4-4-4-4-4-4-4-4-4-4-4-4-4-4-|

G|-----------------------------------------------------------------|
D|-----------------------------------------------------------------|
A|-4-4-4-4-4-4-4-4-4-4-4-4-4-4-4-4-0-0-0-0-0-0-0-0-0-0-0-0-0-0-0-0-|
E|-----------------------------------------------------------------|


Chorus  1:00


G|---------------------------------------------|
D|-2-(ring)------------------------------------|
A|-----------------------4-(ring)-----0-(ring)-|
E|-----------4-(ring)--------------------------|
                                                                  
G|-----------------------------------------------------------------|
D|-2-2-2-2-2-2-2-2-2-2-2-2-2-2-2-2---------------------------------|
A|-----------------------------------------------------------------|
E|---------------------------------4-4-4-4-4-4-4-4-4-4-4-4-4-4-4-4-|
                                                                       x2
G|-----------------------------------------------------------------|
D|-----------------------------------------------------------------|
A|-4-4-4-4-4-4-4-4-4-4-4-4-4-4-4-4-0-0-0-0-0-0-0-0-0-0-0-0-0-0-0-0-|
E|-----------------------------------------------------------------|


Verse  1:36

                                             x2
G|---------------------------------------------|
D|-2-(ring)------------------------------------|
A|-----------------------4-(ring)-----0-(ring)-|
E|-----------4-(ring)--------------------------|


Pre Chorus  2:00


G|-----------------------------------------------------------------|
D|-2-2-2-2-2-2-2-2-2-2-2-2-2-2-2-2---------------------------------|
A|-----------------------------------------------------------------|
E|---------------------------------4-4-4-4-4-4-4-4-4-4-4-4-4-4-4-4-|

G|-----------------------------------------------------------------|
D|-----------------------------------------------------------------|
A|-4-4-4-4-4-4-4-4-4-4-4-4-4-4-4-4-0-0-0-0-0-0-0-0-0-0-0-0-0-0-0-0-|
E|-----------------------------------------------------------------|


Chorus  2:12


G|---------------------------------------------|
D|-2-(ring)------------------------------------|
A|-----------------------4-(ring)-----0-(ring)-|
E|-----------4-(ring)--------------------------|

G|-----------------------------------------------------------------|
D|-2-2-2-2-2-2-2-2-2-2-2-2-2-2-2-2---------------------------------|
A|-----------------------------------------------------------------|
E|---------------------------------4-4-4-4-4-4-4-4-4-4-4-4-4-4-4-4-|
                                                                       x2
G|-----------------------------------------------------------------|
D|-----------------------------------------------------------------|
A|-4-4-4-4-4-4-4-4-4-4-4-4-4-4-4-4-0-0-0-0-0-0-0-0-0-0-0-0-0-0-0-0-|
E|-----------------------------------------------------------------|


Bridge/Pre Chorus  2:48

                                             x4
G|---------------------------------------------|
D|-2-(ring)------------------------------------|
A|-----------------------4-(ring)-----0-(ring)-|
E|-----------4-(ring)--------------------------|


Chorus/  3:24


G|-----------------------------------------------------------------|
D|-2-2-2-2-2-2-2-2-2-2-2-2-2-2-2-2---------------------------------|
A|-----------------------------------------------------------------|
E|---------------------------------4-4-4-4-4-4-4-4-4-4-4-4-4-4-4-4-|
                                                                       x2
G|-----------------------------------------------------------------|
D|-----------------------------------------------------------------|
A|-4-4-4-4-4-4-4-4-4-4-4-4-4-4-4-4-0-0-0-0-0-0-0-0-0-0-0-0-0-0-0-0-|
E|-----------------------------------------------------------------|


Outro  3:48


G|-----------|
D|-2-(ring)--|
A|-----------|
E|-----------|



| /  slide up
| \  slide down
| h  hammer-on
| p  pull-off
| ~  vibrato
| +  harmonic
| x  Mute note
===============================================================================
            
Submit corrections


        We Cant Stop lessons Hard to play? Try these video lessons and learn fast We Cant Stop lessons
        
↑ Back to top | Tablatures and chords for acoustic guitar and electric guitar, ukulele, drums are parodies/interpretations of the original songs. You may use it for private study, scholarship, research or language learning purposes only