Home » M » Miley Cyrus »

Miley Cyrus - The Climb Bass

Artists:  A B C D E F G H I J K L M N O P Q R S T U V W X Y Z # 

The Climb Bass

(ver. 1) Click to play this song!
Miley Cyrus
 Rating:
4.2/5 (30 votes)
                
NO INTRO

[Chorus]

G|---------------------------------------------------------------------------|
D|---------------------------------------------------------------------------|
A|7-----------------------------------------7--------------------------------|
E|-----------7----------5---------7-----------------7--------5-7-------------|

Its the climb....
G|---------------------------------------------------------------------------|
D|---------------------------------------------------------------------------|
A|7--------------------------------------------------------------------------|
E|-----7-----5-----7---------------------------------------------------------|

[Verse]

G|---------------------------------------------------------------------------|
D|---------------------------------------------------------------------------|
A|7-----------------------------------------7--------------------------------|
E|-----------7----------5---------7-----------------7--------5---------7-----|



[Pre - Chorus]

G|---------------------------------------------------------------------------|
D|---------------------------------------------------------------------------|
A|-4---------2----------0-----------2----------------------------------------|
E|---------------------------------------------------------------------------|


[Chorus]

G|---------------------------------------------------------------------------|
D|---------------------------------------------------------------------------|
A|7-----------------------------------------7--------------------------------|
E|-----------7----------5---------7-----------------7--------5-7-------------|

Its the climb....
G|---------------------------------------------------------------------------|
D|---------------------------------------------------------------------------|
A|7--------------------------------------------------------------------------|
E|-----7-----5-----7---------------------------------------------------------|

[Outro]

G|---------------------------------------------------------------------------|
D|---------------------------------------------------------------------------|
A|7-----------------7-----------------7----------------------------7---------|
E|----------5---------------5------------------------5----------------------5|            
Submit corrections

↑ Back to top | Tablatures and chords for acoustic guitar and electric guitar, ukulele, drums are parodies/interpretations of the original songs. You may use it for private study, scholarship, research or language learning purposes only