» » »

Miley Cyrus - Rocking Around The Chrismas Tree Bass

Artists:  A B C D E F G H I J K L M N O P Q R S T U V W X Y Z # 

Rocking Around The Chrismas Tree Bass

(ver. 1) Click to play this song!
Miley Cyrus
 Rating:
4/5 (4 votes)

 Rocking Around The Chrismas Tree lessons Tabs too difficult? Try these video lessons and learn fast
 
                G|-------------------------------------------------------------------|
D|-------------------------------------------------------------------|
A|-------------------------------------------------------------------|
E|---3-3--3--3-3--3--3-3--3--3-3--3---3-3--3--3-3--3--3-3--3--3-3--3-|


G|---------------------------------------------------------------------------|
D|---------------------------------------------------------------------------| X2
A|-----------------------------------5-5--5--5-5--5---5-5--5--5-5--5---------|
E|---3-3--3--3-3--3--3-3--3--3-3--3------------------------------------------|


G|-----------------------------|
D|-----------------------------|
A|----4/3----5-----55-44-33----|
E|---------6----------------66-|


G|---------------------------------------------------------------------------|
D|---------------------------------------------------------------------------| X2
A|-----------------------------------5-5--5--5-5--5---5-5--5--5-5--5---------|
E|---3-3--3--3-3--3--3-3--3--3-3--3------------------------------------------|


G|-------------------------------------|
D|-------------------------------------|
A|----4/3----5-------------55-44-33----|
E|---------6------------------------66-|

G|---------------------------------------------------------------------------|
D|---------------------------------------------------------------------------|
A|-----------------------------------5-5--5--5-5--5---5-5--5--5-5--5---------|
E|---3-3--3--3-3--3--3-3--3--3-3--3------------------------------------------|


G|-------------------------------------------------------------------|
D|-------------------------------------------------------------------|
A|-------------------------------------------------------------------|
E|---3-3--3--3-3--3--3-3--3--3-3--3---3-3--3--3-3--3--3-3--3--3-3--3-|
            
Submit corrections


        Rocking Around The Chrismas Tree lessons Hard to play? Try these video lessons and learn fast Rocking Around The Chrismas Tree lessons
        
↑ Back to top | Tablatures and chords for acoustic guitar and electric guitar, ukulele, drums are parodies/interpretations of the original songs. You may use it for private study, scholarship, research or language learning purposes only