» » »

Miley Cyrus - Permanent December Tabs

Artists:  A B C D E F G H I J K L M N O P Q R S T U V W X Y Z # 

Permanent December Tabs

(ver. 1) Click to play this song!
Miley Cyrus
 Rating:
4/5 (4 votes)

 Permanent December lessons Tabs too difficult? Try these video lessons and learn fast
 
                -------------------------------------------------------------------------------
-------------------------------------------------------------------------------

Tuning: Standard

Intro Riff:

e|-----------------------------------------------------------------------|
B|-----------------------------------------------------------------------|
G|--2-----4---------6-------------------2------6------4------------------|
D|--2-----4---------6-------------------2------6------4------------------|
A|--0-----2---------4-------------------0------4------2------------------|
E|-----------------------------------------------------------------------|

Verse:

I've been to London, Been to Paris, Australia and Rome
e|----------------------------------------|
B|----------------------------------------|
G|----------------------------------------|
D|----------------------------------------|
A|-0-0-0-0-0-0-0-0--2-2-2-4-4-4-4-4-------|
E|----------------------------------------|

There's sexy boys in every city But they're not what I want
e|----------------------------------------|
B|----------------------------------------|
G|----------------------------------------|
D|----------------------------------------|
A|-0-0-0-0-0-0-0-0--4-4-4--2-2-2-2-2------|
E|----------------------------------------|

Some got money, Some got fame, Some got cars, Some got clothes
e|----------------------------------------|
B|----------------------------------------|
G|----------------------------------------|
D|----------------------------------------|
A|-0-0-0-0-0-0-0-0--2-2-2--4-4-4-4-4------|
E|----------------------------------------|

But if it just aint you, Then I don't wanna know
e|----------------------------------------|
B|----------------------------------------|
G|----------------------------------------|
D|----------------------------------------|
A|-2-2-2-2-2-2-2-2-2\---------------------|
E|----------------------------------------|

Bridge:


Cuz baby now I realize that I was wrong, When I said I didn't need you, soooo
e|-----------------------------------------------------------------------|
B|-----------------------------------------------------------------------|
G|--2-----4---------6-------------------2------6------4------------------|
D|--2-----4---------6-------------------2------6------4------------------|
A|--0-----2---------4-------------------0------4------2------------------|
E|-----------------------------------------------------------------------|


Miss you bad so now I'm comin' home, So you better leave the light on, Wait for me and 
leave the light on, heyyy
e|-----------------------------------------------------------------------|
B|-----------------------------------------------------------------------|
G|--2-----4---------6-------------------2-------------4------------------|
D|--2-----4---------6-------------------2------6------4------------------|
A|--0-----2---------4-------------------0------6------2------------------|
E|---------------------------------------------4-------------------------|


Chorus:


This feels like a permanent December
So much colder than I can remember
When I get you back
This time I swear that I won't
Won't ever let you go
Won't let you go, no
e|------------------------------------------------------------------|
B|------------------------------------------------------------------|
G|--2-----4----6-------2------4------6---2----4-----6-----4---------|
D|--2-----4----6-------2------4------6---2----4-----6-----4---------|
A|--0-----2----4-------0------2------4---0----2-----4-----2---------|
E|------------------------------------------------------------------|

Won't let you go go go go
Won't let you go, no
Go go go go, no no no no
e|-----------------|
B|-----------------|
G|--2--------------|
D|--2--------------|
A|--0--------------|
E|-----------------|

Verse:

I've been to New York And to L.A And to Baton Rouge
e|----------------------------------------|
B|----------------------------------------|
G|----------------------------------------|
D|----------------------------------------|
A|-0-0-0-0-0-0-0-0--2-2-2-4-4-4-4-4-------|
E|----------------------------------------|

I met a boy in every city, No one kept me amused
e|----------------------------------------|
B|----------------------------------------|
G|----------------------------------------|
D|----------------------------------------|
A|-0-0-0-0-0-0-0-0--4-4-4--2-2-2-2-2------|
E|----------------------------------------|

But don't call me a Lolita Cuz I don't let 'em through
e|----------------------------------------|
B|----------------------------------------|
G|----------------------------------------|
D|----------------------------------------|
A|-0-0-0-0-0-0-0-0--2-2-2-4-4-4-4-4-------|
E|----------------------------------------|

Cuz I'm saving all my lovin' For someone and it's you
e|----------------------------------------|
B|----------------------------------------|
G|----------------------------------------|
D|----------------------------------------|
A|-2-2-2-2-2-2-2-2-2\---------------------|
E|----------------------------------------|

Bridge:
Cuz baby now I realize that I was wrong, When I said I didn't need you, soooo
e|-----------------------------------------------------------------------|
B|-----------------------------------------------------------------------|
G|--2-----4---------6-------------------2------6------4------------------|
D|--2-----4---------6-------------------2------6------4------------------|
A|--0-----2---------4-------------------0------4------2------------------|
E|-----------------------------------------------------------------------|

Miss you bad so now I'm comin' home, So you better leave the light on,
Wait for me and just leave the light on, heyyy
e|-----------------------------------------------------------------------|
B|-----------------------------------------------------------------------|
G|--2-----4---------6-------------------2-------------4------------------|
D|--2-----4---------6-------------------2------6------4------------------|
A|--0-----2---------4-------------------0------6------2------------------|
E|---------------------------------------------4-------------------------|

Chorus:


This feels like a permanent December
So much colder than I can remember
When I get you back
This time I swear that I won't
Won't ever let you go
Won't let you go, no
e|------------------------------------------------------------------|
B|------------------------------------------------------------------|
G|--2-----4----6-------2------4------6---2----4-----6-----4---------|
D|--2-----4----6-------2------4------6---2----4-----6-----4---------|
A|--0-----2----4-------0------2------4---0----2-----4-----2---------|
E|------------------------------------------------------------------|

Chorus Part 2:

Won't let you go go go go
Won't let you go, no
Go go go go, no no no no

Guitar 1:
e|------------------------|
B|------------------------|
G|-2---4----6-------------| X4
D|-2---4----6-------------|
A|-0---2----4-------------|
E|------------------------|

Guitar 2:
e|--------------------------------------------------------|
B|--9-9-9-9-9-9-9-9--7-7-7--9-9-9-9-9---------------------|
G|--9-9-9-9-9-9-9-9--9-9-9--9-9-9-9-9---------------------| X4
D|--------------------------------------------------------|
A|--------------------------------------------------------|
E|--------------------------------------------------------|

Interlude (clean tone):

Hey!
What do you say?
Cuz I been all around the world
And they just aint the same
Hey!
What do you say?
Without my baby
I go crazy
And I just gotta scream
e|--------------------------------------|
B|--9--9--9--9---7----9-----------------|
G|--9--9--9--9---9----9-----------------| X4
D|--------------------------------------|
A|--------------------------------------|
E|--------------------------------------|

Bridge:
But now I realize that I was wrong, When I said I didn't need you, soooo
e|-----------------------------------------------------------------------|
B|-----------------------------------------------------------------------|
G|--2-----4---------6-------------------2------6------4------------------|
D|--2-----4---------6-------------------2------6------4------------------|
A|--0-----2---------4-------------------0------4------2------------------|
E|-----------------------------------------------------------------------|

Miss you bad so now I'm comin' home, So you better leave the light on,
Wait for me and just leave the light on, oh oh
e|-----------------------------------------------------------------------|
B|-----------------------------------------------------------------------|
G|--2-----4---------6-------------------2-------------4------------------|
D|--2-----4---------6-------------------2------6------4------------------|
A|--0-----2---------4-------------------0------6------2------------------|
E|---------------------------------------------4-------------------------|

Chorus:

This feels like a permanent December
So much colder than I can remember
When I get you back
This time I swear that I won't
Won't ever let you go
Won't let you go, no

e|------------------------------------------------------------------|
B|------------------------------------------------------------------|
G|--2-----4----6-------2------4------6---2----4-----6-----4---------|
D|--2-----4----6-------2------4------6---2----4-----6-----4---------|
A|--0-----2----4-------0------2------4---0----2-----4-----2---------|
E|------------------------------------------------------------------|

Chorus Part 2:

Won't let you go, no
Go go go go, no no no no
Won't let you go go go go
Won't let you go, no
Go go go go, no no no no

Guitar 1:
e|------------------------|
B|------------------------|
G|-2---4----6-------------| X4
D|-2---4----6-------------|
A|-0---2----4-------------|
E|------------------------|

Guitar 2:
e|--------------------------------------------------------|
B|--9-9-9-9-9-9-9-9--7-7-7--9-9-9-9-9---------------------|
G|--9-9-9-9-9-9-9-9--9-9-9--9-9-9-9-9---------------------| X4
D|--------------------------------------------------------|
A|--------------------------------------------------------|
E|--------------------------------------------------------|

Listen to the song to get everything down with timing.

Enjoy,
-Spence

Lyrics:

I've been to London,
Been to Paris,
Australia and Rome
There's sexy boys in every city
But they're not what I want
Some got money
Some got fame
Some got cars
Some got clothes
But if it just aint you
Then I don't wanna know

Cuz baby now I realize that I was wrong
When I said I didn't need you, soooo
Miss you bad so now I'm comin' home
So you better leave the light on
Wait for me and just leave the light on, heyyy

This feels like a permanent December
So much colder than I can remember
When I get you back
This time I swear that I won't
Won't ever let you go
Won't let you go, no
Won't let you go go go go
Won't let you go, no
Go go go go, no no no no

I've been to New York
And to L.A
And to Baton Rouge
I met a boy in every city
No one kept me amused
But don't call me a Lolita
Cuz I don't let 'em through
Cuz I'm saving all my lovin'
For someone and it's you

Cuz baby now I realize that I was wrong
When I said I didn't need you, soooo
Miss you bad so now I'm comin' home
So you better leave the light on
Wait for me and just leave the light on, heyyy

This feels like a permanent December
So much colder than I can remember
When I get you back
This time I swear that I won't
Won't ever let you go
Won't let you go, no
Won't let you go go go go
Won't let you go, no
Go go go go, no no no no

Won't let you go go go go
Won't let you go, no
Go go go go, no no no no

Hey!
What do you say?
Cuz I been all around the world
And they just aint the same
Hey!
What do you say?
Without my baby
I go crazy
And I just gotta scream

But now I realize that I was wrong
When I said I didn't need you, soooo
Miss you bad so now I'm comin' home
So you better leave the light on
Wait for me and just leave the light on, oh oh!

This feels like a permanent December
So much colder than I can remember
When I get you back
This time I swear that I won't
Won't ever let you go
Won't let you go, no
Won't let you go go go go
Won't let you - -

This feels like a permanent December
So much colder than I can remember
When I get you back
This time I swear that I won't
Won't ever let you go
Won't let you go, no
Won't let you go go go go
Won't let you go, no
Go go go go, no no no no

Won't let you go go go go
Won't let you go, no
Go go go go, no no no no


************************************

| /   slide up
| \   slide down
| h   hammer-on
| p   pull-off
| ~   vibrato
| +   harmonic
| x   Mute note
| b   Bend
| pb  Pre-bend
| br  Bend release
| pbr Pre-bend release
| brb Bend release bend

************************************
            
Submit corrections


        Permanent December lessons Hard to play? Try these video lessons and learn fast Permanent December lessons
        
↑ Back to top | Tablatures and chords for acoustic guitar and electric guitar, ukulele, drums are parodies/interpretations of the original songs. You may use it for private study, scholarship, research or language learning purposes only