» » »

Miley Cyrus - Jolene Tabs

Artists:  A B C D E F G H I J K L M N O P Q R S T U V W X Y Z # 

Jolene Tabs

(ver. 1) Click to play this song!
Miley Cyrus
 Rating:
4.4/5 (11 votes)

 Jolene lessons Tabs too difficult? Try these video lessons and learn fast
 
                [Intro]

e|------------------------------------|
B|--------0---0h1----0------1p0-------|
G|--0h2-------------------0--------0--|
D|------2-----0h2------0--------0-----| (x4)
A|----------0------0--------0---------|
E|------------------------------------|

[Chorus] 
    
e|--------------------0------|----------------|------------------------------------|
B|----1---1-----1---------1--|-------------0--|--------0----0h1----0------1p0------|
G|------------------0--------|----0----0------|--0h2-------------------0--------0--|
D|----2---------2-------2----|----0------0----|------2------0h2------0--------0----|
A|--0----(0)--3----(3)-------|----------------|----------0-------0--------0--------|
E|---------------------------|--3----3--------|------------------------------------|

e|---------------------------------|
B|---------------0--------------0--|
G|-----0-----0--------0-----0------|
D|-----0-------0------0-------0----|
A|---------------------------------|
E|--3-----3--------3-----3---------|

e|------------------------------------|------------------------------------|
B|--------0---0h1----0------1p0-------|--------0---0h1----0------1p0-------|
G|--0h2-------------------0--------0--|--0h2-------------------0--------0--|
D|------2-----0h2------0--------0-----|------2-----0h2------0--------0-----| 
A|----------0------0--------0---------|----------0------0--------0---------|
E|------------------------------------|------------------------------------|

e|--------------------0------|----------------|------------------------------------|
B|----1---1-----1---------1--|-------------0--|--------0----0h1----0------1p0------|
G|------------------0--------|----0----0------|--0h2-------------------0--------0--|
D|----2---------2-------2----|----0------0----|------2------0h2------0--------0----|
A|--0----(0)--3----(3)-------|----------------|----------0-------0--------0--------|
E|---------------------------|--3----3--------|------------------------------------|

e|---------------------------------|
B|---------------0--------------0--|
G|-----0-----0--------0-----0------|
D|-----0-------0------0-------0----|
A|---------------------------------|
E|--3-----3--------3-----3---------|

e|------------------------------------|------------------------------------|
B|--------0---0h1----0------1p0-------|--------0---0h1----0------1p0-------|
G|--0h2-------------------0--------0--|--0h2-------------------0--------0--|
D|------2-----0h2------0--------0-----|------2-----0h2------0--------0-----| 
A|----------0------0--------0---------|----------0------0--------0---------|
E|------------------------------------|------------------------------------|

[Verse 1] 4x

e|--------------------0------|-----------------------------------|---------------------------------|
B|----1---1-----1---------1--|---------------0----------------1--|---------------0--------------0--|
G|------------------0--------|-----0-----0---------2-----2-------|-----0-----0--------0-----0------|
D|----2---------2-------2----|-----0-------0-------2--------2----|-----0-------0------0-------0----|
A|--0----(0)--3----(3)-------|--2-----2---------0-----0----------|---------------------------------|
E|---------------------------|-----------------------------------|--3-----3--------3-----3---------|

e|------------------------------------|------------------------------------|
B|--------0---0h1----0------1p0-------|--------0---0h1----0------1p0-------|
G|--0h2-------------------0--------0--|--0h2-------------------0--------0--|
D|------2-----0h2------0--------0-----|------2-----0h2------0--------0-----| 
A|----------0------0--------0---------|----------0------0--------0---------|
E|------------------------------------|------------------------------------|

[Chorus] 
    
e|--------------------0------|----------------|------------------------------------|
B|----1---1-----1---------1--|-------------0--|--------0----0h1----0------1p0------|
G|------------------0--------|----0----0------|--0h2-------------------0--------0--|
D|----2---------2-------2----|----0------0----|------2------0h2------0--------0----|
A|--0----(0)--3----(3)-------|----------------|----------0-------0--------0--------|
E|---------------------------|--3----3--------|------------------------------------|

e|---------------------------------|
B|---------------0--------------0--|
G|-----0-----0--------0-----0------|
D|-----0-------0------0-------0----|
A|---------------------------------|
E|--3-----3--------3-----3---------|

e|------------------------------------|------------------------------------|
B|--------0---0h1----0------1p0-------|--------0---0h1----0------1p0-------|
G|--0h2-------------------0--------0--|--0h2-------------------0--------0--|
D|------2-----0h2------0--------0-----|------2-----0h2------0--------0-----| 
A|----------0------0--------0---------|----------0------0--------0---------|
E|------------------------------------|------------------------------------|

e|--------------------0------|----------------|------------------------------------|
B|----1---1-----1---------1--|-------------0--|--------0----0h1----0------1p0------|
G|------------------0--------|----0----0------|--0h2-------------------0--------0--|
D|----2---------2-------2----|----0------0----|------2------0h2------0--------0----|
A|--0----(0)--3----(3)-------|----------------|----------0-------0--------0--------|
E|---------------------------|--3----3--------|------------------------------------|

e|---------------------------------|
B|---------------0--------------0--|
G|-----0-----0--------0-----0------|
D|-----0-------0------0-------0----|
A|---------------------------------|
E|--3-----3--------3-----3---------|

e|------------------------------------|------------------------------------|
B|--------0---0h1----0------1p0-------|--------0---0h1----0------1p0-------|
G|--0h2-------------------0--------0--|--0h2-------------------0--------0--|
D|------2-----0h2------0--------0-----|------2-----0h2------0--------0-----| 
A|----------0------0--------0---------|----------0------0--------0---------|
E|------------------------------------|------------------------------------|

[Verse 2] 4x

e|--------------------0------|-----------------------------------|---------------------------------|
B|----1---1-----1---------1--|---------------0----------------1--|---------------0--------------0--|
G|------------------0--------|-----0-----0---------2-----2-------|-----0-----0--------0-----0------|
D|----2---------2-------2----|-----0-------0-------2--------2----|-----0-------0------0-------0----|
A|--0----(0)--3----(3)-------|--2-----2---------0-----0----------|---------------------------------|
E|---------------------------|-----------------------------------|--3-----3--------3-----3---------|

e|------------------------------------|------------------------------------|
B|--------0---0h1----0------1p0-------|--------0---0h1----0------1p0-------|
G|--0h2-------------------0--------0--|--0h2-------------------0--------0--|
D|------2-----0h2------0--------0-----|------2-----0h2------0--------0-----| 
A|----------0------0--------0---------|----------0------0--------0---------|
E|------------------------------------|------------------------------------|

[Chorus] 

e|--------------------0------|-----------------------------------|---------------------------------|
B|----1---1-----1---------1--|---------------0----------------1--|---------------0--------------0--|
G|------------------0--------|-----0-----0---------2-----2-------|-----0-----0--------0-----0------|
D|----2---------2-------2----|-----0-------0-------2--------2----|-----0-------0------0-------0----|
A|--0----(0)--3----(3)-------|--2-----2---------0-----0----------|---------------------------------|
E|---------------------------|-----------------------------------|--3-----3--------3-----3---------|

e|------------------------------------|------------------------------------|
B|--------0---0h1----0------1p0-------|--------0---0h1----0------1p0-------|
G|--0h2-------------------0--------0--|--0h2-------------------0--------0--|
D|------2-----0h2------0--------0-----|------2-----0h2------0--------0-----| 
A|----------0------0--------0---------|----------0------0--------0---------|
E|------------------------------------|------------------------------------|

[Verse 3] 2x

e|--------------------0------|-----------------------------------|---------------------------------|
B|----1---1-----1---------1--|---------------0----------------1--|---------------0--------------0--|
G|------------------0--------|-----0-----0---------2-----2-------|-----0-----0--------0-----0------|
D|----2---------2-------2----|-----0-------0-------2--------2----|-----0-------0------0-------0----|
A|--0----(0)--3----(3)-------|--2-----2---------0-----0----------|---------------------------------|
E|---------------------------|-----------------------------------|--3-----3--------3-----3---------|

e|------------------------------------|------------------------------------|
B|--------0---0h1----0------1p0-------|--------0---0h1----0------1p0-------|
G|--0h2-------------------0--------0--|--0h2-------------------0--------0--|
D|------2-----0h2------0--------0-----|------2-----0h2------0--------0-----| 
A|----------0------0--------0---------|----------0------0--------0---------|
E|------------------------------------|------------------------------------|

[Chorus] 
    
e|--------------------0------|----------------|------------------------------------|
B|----1---1-----1---------1--|-------------0--|--------0----0h1----0------1p0------|
G|------------------0--------|----0----0------|--0h2-------------------0--------0--|
D|----2---------2-------2----|----0------0----|------2------0h2------0--------0----|
A|--0----(0)--3----(3)-------|----------------|----------0-------0--------0--------|
E|---------------------------|--3----3--------|------------------------------------|

e|---------------------------------|
B|---------------0--------------0--|
G|-----0-----0--------0-----0------|
D|-----0-------0------0-------0----|
A|---------------------------------|
E|--3-----3--------3-----3---------|

e|------------------------------------|------------------------------------|
B|--------0---0h1----0------1p0-------|--------0---0h1----0------1p0-------|
G|--0h2-------------------0--------0--|--0h2-------------------0--------0--|
D|------2-----0h2------0--------0-----|------2-----0h2------0--------0-----| 
A|----------0------0--------0---------|----------0------0--------0---------|
E|------------------------------------|------------------------------------|

e|--------------------0------|----------------|------------------------------------|
B|----1---1-----1---------1--|-------------0--|--------0----0h1----0------1p0------|
G|------------------0--------|----0----0------|--0h2-------------------0--------0--|
D|----2---------2-------2----|----0------0----|------2------0h2------0--------0----|
A|--0----(0)--3----(3)-------|----------------|----------0-------0--------0--------|
E|---------------------------|--3----3--------|------------------------------------|

e|---------------------------------|
B|---------------0--------------0--|
G|-----0-----0--------0-----0------|
D|-----0-------0------0-------0----|
A|---------------------------------|
E|--3-----3--------3-----3---------|

e|------------------------------------|------------------------------------|
B|--------0---0h1----0------1p0-------|--------0---0h1----0------1p0-------|
G|--0h2-------------------0--------0--|--0h2-------------------0--------0--|
D|------2-----0h2------0--------0-----|------2-----0h2------0--------0-----| 
A|----------0------0--------0---------|----------0------0--------0---------|
E|------------------------------------|------------------------------------|

[Outro]

e|------------------------------------|
B|--------0---0h1----0------1p0-------|
G|--0h2-------------------0--------0--|
D|------2-----0h2------0--------0-----| (x4)
A|----------0------0--------0---------|
E|------------------------------------|            
Submit corrections


        Jolene lessons Hard to play? Try these video lessons and learn fast Jolene lessons
        
↑ Back to top | Tablatures and chords for acoustic guitar and electric guitar, ukulele, drums are parodies/interpretations of the original songs. You may use it for private study, scholarship, research or language learning purposes only