» » »

Miley Cyrus - Inspired Tabs

Artists:  A B C D E F G H I J K L M N O P Q R S T U V W X Y Z # 

Inspired Tabs

(ver. 1) Click to play this song!
Miley Cyrus
 Rating:
4.2/5 (30 votes)

 Inspired  lessons Tabs too difficult? Try these video lessons and learn fast
 
                [Intro]

e|--------------------------|
B|--------------------------|
G|-----0-----0-----0-----0--|
D|--------------------------| 4x
A|--------------------------|
E|--3-----3-----3-----3-----|

[Verse]

e|-----------------------|-----------------------|-----------------------|--------------------------|
B|--------0--------0-----|--------0--------0-----|--------0--------0-----|--------0-----------0-----|
G|--------0--------0-----|--------0--------0-----|--------0--------0-----|--------0-----------0-----|
D|-----5-----5--------5--|-----5-----5--------5--|-----5-----5--------5--|-----5-----5-----5-----5--| 4x
A|-----------------------|--0-----------0--------|--2-----------2--------|--3-----------0-----------|
E|--3-----------3--------|-----------------------|-----------------------|--------------------------|

[Chorus]

e|-----------------------|-----------------------|-----------------------|-----------------------|
B|--------0--------0-----|--------0--------0-----|--------0--------0-----|--------0--------0-----|
G|--------0--------0-----|--------0--------0-----|--------0--------0-----|--------0--------0-----|
D|-----5-----5--------5--|-----5-----5--------5--|-----5-----5--------5--|-----5-----5--------5--|
A|--7-----------7--------|--6-----------6--------|--5-----------5--------|--4-----------4--------|
E|-----------------------|-----------------------|-----------------------|-----------------------|

e|--------------------------|--------------------------|-----------------------|-----------------------|
B|-----0-----0--------0-----|-----0-----0--------0-----|-----------0-----0-----|-----------0-----0-----|
G|-----------------0-----0--|-----------------0-----0--|-----------0-----0-----|-----------0-----0-----|
D|--------------------------|--------------------------|-----5--------------5--|-----5--------------5--|
A|--0-----0-----0-----------|--0-----0-----0-----------|-----------------------|-----------------------|
E|--------------------------|--------------------------|--3-----3-----3--------|--3-----3-----3--------|

[Verse]

e|-----------------------|-----------------------|-----------------------|--------------------------|
B|--------0--------0-----|--------0--------0-----|--------0--------0-----|--------0-----------0-----|
G|--------0--------0-----|--------0--------0-----|--------0--------0-----|--------0-----------0-----|
D|-----5-----5--------5--|-----5-----5--------5--|-----5-----5--------5--|-----5-----5-----5-----5--| 4x
A|-----------------------|--0-----------0--------|--2-----------2--------|--3-----------0-----------|
E|--3-----------3--------|-----------------------|-----------------------|--------------------------|

[Chorus]

e|-----------------------|-----------------------|-----------------------|-----------------------|
B|--------0--------0-----|--------0--------0-----|--------0--------0-----|--------0--------0-----|
G|--------0--------0-----|--------0--------0-----|--------0--------0-----|--------0--------0-----|
D|-----5-----5--------5--|-----5-----5--------5--|-----5-----5--------5--|-----5-----5--------5--|
A|--7-----------7--------|--6-----------6--------|--5-----------5--------|--4-----------4--------|
E|-----------------------|-----------------------|-----------------------|-----------------------|

e|--------------------------|--------------------------|-----------------------|-----------------------|
B|-----0-----0--------0-----|-----0-----0--------0-----|-----------0-----0-----|-----------0-----0-----|
G|-----------------0-----0--|-----------------0-----0--|-----------0-----0-----|-----------0-----0-----|
D|--------------------------|--------------------------|-----5--------------5--|-----5--------------5--|
A|--0-----0-----0-----------|--0-----0-----0-----------|-----------------------|-----------------------|
E|--------------------------|--------------------------|--3-----3-----3--------|--3-----3-----3--------|

[Bridge]

e|-----------------------|-----------------------|-----------------------|-----------------------|
B|--------0--------0-----|--------0--------0-----|--------0--------0-----|--------0--------0-----|
G|--------0--------0-----|--------0--------0-----|--------0--------0-----|--------0--------0-----|
D|-----5-----5--------5--|-----5-----5--------5--|-----5-----5--------5--|-----5-----5--------5--| 2x
A|--0-----------0--------|--3-----------3--------|-----------------------|-----------------------|
E|-----------------------|-----------------------|--3-----------3--------|--3-----------3--------|

[Chorus]

e|-----------------------|-----------------------|-----------------------|-----------------------|
B|--------0--------0-----|--------0--------0-----|--------0--------0-----|--------0--------0-----|
G|--------0--------0-----|--------0--------0-----|--------0--------0-----|--------0--------0-----|
D|-----5-----5--------5--|-----5-----5--------5--|-----5-----5--------5--|-----5-----5--------5--|
A|--7-----------7--------|--6-----------6--------|--5-----------5--------|--4-----------4--------|
E|-----------------------|-----------------------|-----------------------|-----------------------|

e|--------------------------|--------------------------|-----------------------|-----------------------|
B|-----0-----0--------0-----|-----0-----0--------0-----|-----------0-----0-----|-----------0-----0-----|
G|-----------------0-----0--|-----------------0-----0--|-----------0-----0-----|-----------0-----0-----|
D|--------------------------|--------------------------|-----5--------------5--|-----5--------------5--|
A|--0-----0-----0-----------|--0-----0-----0-----------|-----------------------|-----------------------|
E|--------------------------|--------------------------|--3-----3-----3--------|--3-----3-----3--------|

e|-----------------------|-----------------------|-----------------------|-----------------------|
B|--------0--------0-----|--------0--------0-----|--------0--------0-----|--------0--------0-----|
G|--------0--------0-----|--------0--------0-----|--------0--------0-----|--------0--------0-----|
D|-----5-----5--------5--|-----5-----5--------5--|-----5-----5--------5--|-----5-----5--------5--|
A|--7-----------7--------|--6-----------6--------|--5-----------5--------|--4-----------4--------|
E|-----------------------|-----------------------|-----------------------|-----------------------|

e|--------------------------|--------------------------|-----------------------|-----------------------|
B|-----0-----0--------0-----|-----0-----0--------0-----|-----------0-----0-----|-----------0-----0-----|
G|-----------------0-----0--|-----------------0-----0--|-----------0-----0-----|-----------0-----0-----|
D|--------------------------|--------------------------|-----5--------------5--|-----5--------------5--|
A|--0-----0-----0-----------|--0-----0-----0-----------|-----------------------|-----------------------|
E|--------------------------|--------------------------|--3-----3-----3--------|--3-----3-----3--------|

e|-----------------------|-----------------------|-----------------------|-----------------------|
B|--------0--------0-----|--------0--------0-----|--------0--------0-----|--------0--------0-----|
G|--------0--------0-----|--------0--------0-----|--------0--------0-----|--------0--------0-----|
D|-----5-----5--------5--|-----5-----5--------5--|-----5-----5--------5--|-----5-----5--------5--|
A|--7-----------7--------|--6-----------6--------|--5-----------5--------|--4-----------4--------|
E|-----------------------|-----------------------|-----------------------|-----------------------|

e|--------------------------|--------------------------|-----------------------|-----------------------|
B|-----0-----0--------0-----|-----0-----0--------0-----|-----------0-----0-----|-----------0-----0-----|
G|-----------------0-----0--|-----------------0-----0--|-----------0-----0-----|-----------0-----0-----|
D|--------------------------|--------------------------|-----5--------------5--|-----5--------------5--|
A|--0-----0-----0-----------|--0-----0-----0-----------|-----------------------|-----------------------|
E|--------------------------|--------------------------|--3-----3-----3--------|--3-----3-----3--------|

e|-------|
B|--0----|
G|--0----|
D|--0----|
A|--2----|
E|--3----|            
Submit corrections


        Inspired  lessons Hard to play? Try these video lessons and learn fast Inspired  lessons
        
↑ Back to top | Tablatures and chords for acoustic guitar and electric guitar, ukulele, drums are parodies/interpretations of the original songs. You may use it for private study, scholarship, research or language learning purposes only