Home » M » Miles Davis »

Miles Davis - Flamenco Sketches Tabs

Artists:  A B C D E F G H I J K L M N O P Q R S T U V W X Y Z # 

Flamenco Sketches Tabs

(ver. 1) Click to play this song!
Miles Davis
[Trumpet solo]

  C Ionian                                           Ab Mixolydian
E|10-------7-8-10-7--------12-10-7--------10-7------|16--13--------------------------8-9-8-11---|
B|---8--10----------8-8~-----------8-8~--------8-10~|-------14-------------------6-9----------11|
G|--------------------------------------------------|----------13--------6---6-8----------------|
D|--------------------------------------------------|--------------15~-----8--------------------|
A|--------------------------------------------------|-------------------------------------------|
E|--------------------------------------------------|-------------------------------------------|

  Bb Ionian
E|---17~--15-13----17-15-13~----------------------------------|
B|15------------15-----------15-16-15--13---------------------|
G|----------------------------------------15-14-12---10-------|
D|------------------------------------------------------12-\10|
A|------------------------------------------------------------|
E|------------------------------------------------------------|

  D Phrygian
E|-----------------------------------------------------------------------------------------------13/15-13|
B|15-15-15-15-16-18~-15h16-15-15-15----13~---15-15-16-18~~-15h16-15-16-15~~----13-15-15-16-18~-----------|
G|----------------------------------14--------------------------------------14---------------------------|
D|-------------------------------------------------------------------------------------------------------|
A|-------------------------------------------------------------------------------------------------------|
E|-------------------------------------------------------------------------------------------------------|

                                       G Dorian
E|------------------------------------|12-15-12----------------|
B|15h16-15~-13-13---------13----------|---------13-------------|
G|----------------15-14------14-15-15~|------------14-12-------|
D|------------------------------------|------------------12----|
A|------------------------------------|---------------------15~|
E|------------------------------------|------------------------|


[Saxophone Solo 1]

  C Ionian
E|------------------7------------------------------5/7-7--------------------8p7-10-8|
B|----------------8---10-8----10/12-10/12-10-8-----------10-10-8-8------------------|
G|---------7-9-10----------7-------------------7~------------------7-7-9-9----------|
D|9/10--10--------------------------------------------------------------------------|
A|----------------------------------------------------------------------------------|
E|----------------------------------------------------------------------------------|

  Ab Mixolydian
E|-----------------------------6------------9---------------|
B|9~-----------9-----------7-6---9-9----------9-------------|
G|-----10~---8-----8/10~---------------10-8-------10~--10-10|
D|---8-----------8-------------------8----------8-----------|
A|----------------------------------------------------------|
E|----------------------------------------------------------|

  Bb Ionian
E|------------------------------------------------------------6|
B|-----------------------------------------------------6-8/10--|
G|10~----5-----10---5~----10---5---7/8---5/7-----5-7h8---------|
D|-----7-----8----7-----8----7---5-----8-------8---------------|
A|-------------------------------------------------------------|
E|-------------------------------------------------------------|

  D Phrygian
E|5~~---5h6-5-6p5-6p5-6/8~\6-6-5-5~---5-6p5-6-8-10p8-10/11\10-8----------/8~-------------|
B|--------------------------------------------------------------11-10-11-----10-11-10-10~|
G|---------------------------------------------------------------------------------------|
D|---------------------------------------------------------------------------------------|
A|---------------------------------------------------------------------------------------|
E|---------------------------------------------------------------------------------------|

E|----------------------------------------------------------------------------------------------------|
B|11-10-8-8-7-10----------------------------------------------------------11h13~----------------------|
G|---------------10~-8-7-----------------------------------------10h12h14--------14-12p11-------------|
D|------------------------------------------------------10-12h13--------------------------13-12-10----|
A|---------------------------------------------10-12/13--------------------------------------------13~|
E|-------------------------8/10h11h13-10h11h13--------------------------------------------------------|

  G Dorian
E|-------------------------------------------------------------------------------------------|
B|-----------------------------12h13h15~--13p11p10\8-10-8------------------------------------|
G|------------------9-10h12/14----------------------------7~---------------------------------|
D|------------10-12------------------------------------------10-8h10--8-10-8-7-8-------------|
A|10-12-10-13----------------------------------------------------------------------5/6\5/6\5~|
E|-------------------------------------------------------------------------------------------|


[Saxophone Solo 2]

  C Ionian
E|---------------------------------------7h10p7---7-8----------------------------------------------|
B|--------------8-------------------10-8--------------10------------------------------------8h10-8~|
G|---9-7-7----7---10-10-9p8h9p8h9~-----------------------10-7------9---9-----9-7-7-10-9-8h9--------|
D|10-------10-------------------------------------------------7-10---9---7-------------------------|
A|-------------------------------------------------------------------------------------------------|
E|-------------------------------------------------------------------------------------------------|

                                                                              Ab Mixolydian
E|---8-8-7-7-----------------------------------------------------------------|------------|
B|10---------8-8------------------------------------------------8~~----------|------------|
G|---------------9-7h9-7~---4h5h7-9-7-9---------------7/9-7-6-7--------------|9-8-10-11-8~|
D|-----------------------------------------------7-----------------------7-10|------------|
A|--------------------------------------10-10~-----10-----------------10-----|------------|
E|---------------------------------------------------------------------------|------------|
 
E|--------------------6-8-/11--8h9p8--------------------------------------6-9-11/13-11/13-11~|
B|-----------7----7-9-------------------------------------9-------------7--------------------|
G|--8-7-8-10---10--------------------11-8---------8---------11-10-8-7-8----------------------|
D|8---------------------------------------8-11-10--------------------------------------------|
A|--------------------------------------------------11~--------------------------------------|
E|-------------------------------------------------------------------------------------------|

  Bb Ionian  
E|-----------------------------------------------------8---------------------------------------------|
B|-----------------------------------------------10-11---10~--10-11-8-----------8-11-8-9-10-8--------|
G|--------------------------------------------------------------------8-------8---------------10-9-8~|
D|7--8--9-10---10/12-------12/13----------7h8h10------------------------10-10------------------------|
A|-------------------10--------------8h10------------------------------------------------------------|
E|----------------------13-------13------------------------------------------------------------------|
 
E|-----------------------8----10----13~~--8/10-8------10----8/10--------8--------------------------------|
B|------------------10-8---10----10----------------11----10------10-8-----10-8h10p8----------------------|
G|7------------7-10-----------------------------------------------------------------10-7-7~---8----------|
D|--7-7-10-7-8-------------------------------------------------------------------------------------------|
A|----------------------------------------------------------------------------------------------8-8--8-10|
E|-------------------------------------------------------------------------------------------------------|

              D Phrygian
E|-----------|-----------------------------------------------------11h13h14~-p13p11\5---------------------|
B|-----------|------------6-7-10~------7-8-10h11p10-8-10-10~-11-13----------------------8-7---------------|
G|-----------|6-7-9-6-7-8----------7-8------------------------------------------------------7-8-7-10-8-7--|
D|8-7-8-10--7|-------------------------------------------------------------------------------------------9|
A|-----------|--------------------------------------------------------------------------------------------|
E|-----------|--------------------------------------------------------------------------------------------|
  
E|--------------------10~~-11-10~-13-11-10----10-------------8----------------------------------|
B|--------------10-11----------------------13----10~---11-10---11-10h11p10p8-10------7/8-7---7--|
G|------------------------------------------------------------------------------11~--------9---7|
D|12p10h12--------------------------------------------------------------------------------------|
A|---------12-----------------------------------------------------------------------------------|
E|----------------------------------------------------------------------------------------------|

                        G Dorian
E|---------------------|------8-10-8---------------------------------------|
B|------------7-10-8-8~|10-11-------------------------------8-10-----------|
G|-----7----9----------|-------------------------7-9~--7-10------9-9-7-----|
D|---9---10------------|------------------7-8-10-----------------------7-7~|
A|10-------------------|---------------10----------------------------------|
E|---------------------|---------------------------------------------------|
 
I'm not going to attempt the piano solo, but the same sequences are followed


[Trumpet solo 2]

  C Ionian                             Ab Mixolydian
E|8-10-7~--12~--10-8-7~~--8-10-7------|--9-11-13-16-21-20---------------------|
B|-------------------------------10-8~|9------------------21--18-16-----------|
G|------------------------------------|-----------------------------17~-15-13~|
D|------------------------------------|---------------------------------------|
A|------------------------------------|---------------------------------------|
E|------------------------------------|---------------------------------------|

  Bb Ionian                                               D Phrygian
E|---------------15----17-15-----------------------------|------------------------------------------------|
B|---------15-15----18-------18-15-----------------------|------------------------------------------10-13~|
G|14-15-17--------------------------17-15-14-12~---------|7-8-10-12-10-8\7-----7-5~---7-5-7-8-10-12-------|
D|------------------------------------------------12-10~~|-------------------7----------------------------|
A|-------------------------------------------------------|------------------------------------------------|
E|-------------------------------------------------------|------------------------------------------------|
 
E|---------10-10--10-10-12-13-10/11-10-11-10~---10-11-13-10/11-10--------|
B|10-12-13--------------------------------------------------------13-13~~|
G|-----------------------------------------------------------------------|
D|-----------------------------------------------------------------------|
A|-----------------------------------------------------------------------|
E|-----------------------------------------------------------------------|
            
Submit corrections

↑ Back to top | Tablatures and chords for acoustic guitar and electric guitar, ukulele, drums are parodies/interpretations of the original songs. You may use it for private study, scholarship, research or language learning purposes only