» » »

Milburn - Storm In A Tea Cup Tabs

Artists:  A B C D E F G H I J K L M N O P Q R S T U V W X Y Z # 

Storm In A Tea Cup Tabs

(ver. 1) Click to play this song!
Milburn
 Rating:
4/5 (4 votes)

 Storm In A Tea Cup lessons Tabs too difficult? Try these video lessons and learn fast
 
                (Intro)
soz bout the strings on the tab its my 1st it sound gd 2 me but leave comments n ratings 
rate the layout rate the sound of da tab plz cheers

E|---------------------------------------------------------------------------|
A|---------------------------------------------------------------------------|
D|---------------------------------------------------------------------------|
G|-----7----7--9/11--9--7----7--9/11-----11--9--7----7--9/11--9--7----7------|
B|------------------------------------9--------------------------------------|
e|---------------------------------------------------------------------------|


E|---------------------------------------------------------------------------|
A|---------------------------------------------------------------------------|
D|--------------------------------------------9--7--9------------------------|
G|-------------------7----7--9/11--9--7----7-----------7----7----7--9/11--9--|
B|----11--11--11--9----------------------------------------------------------|
e|---------------------------------------------------------------------------|


e|---------------------------------------------------------------------------|
A|---------------------------------------------------------------------------|
D|---------------------------------------------------------------------------|
G|---------------------------------------------------------------------------|
B|------11--11--11--11--9----------------------------------------------------|
e|---------------------------------------------------------------------------|
            
Submit corrections


        Storm In A Tea Cup lessons Hard to play? Try these video lessons and learn fast Storm In A Tea Cup lessons
        
↑ Back to top | Tablatures and chords for acoustic guitar and electric guitar, ukulele, drums are parodies/interpretations of the original songs. You may use it for private study, scholarship, research or language learning purposes only