» » »

Milburn - Rudiments Tabs

Artists:  A B C D E F G H I J K L M N O P Q R S T U V W X Y Z # 

Rudiments Tabs

(ver. 1) Click to play this song!
Milburn
 Rating:
4.2/5 (5 votes)

 Rudiments lessons Tabs too difficult? Try these video lessons and learn fast
 
                ---------------------------------------------------------------------------


Intro/Verse

  Dmaj7 (strum)       Gmaj7 (strum)
e|--x--------------------x----------|
B|--7-------------------12----------|
G|--6-------------------11----------|
D|--7-------------------12----------|
A|--5-------------------10----------|
E|----------------------------------|


Chorus

    B                  A                 G
e|----------------------------------------------------|
B|----------------------------------------------------|
G|----------------------------------------------------|
D|--9-9-9-9-9-9-9-----7-7-7-7-7-7-7-----5-5-5-5-5-5-5-|
A|--9-9-9-9-9-9-9-----7-7-7-7-7-7-7-----5-5-5-5-5-5-5-|
E|--7-7-7-7-7-7-7-----5-5-5-5-5-5-5-----3-3-3-3-3-3-3-|

    Gb           A
e|---------------------------|
B|---------------------------|
G|---------------------------|
D|--4-4-4-4-4-4--7-7-7-7-7-7-|
A|--4-4-4-4-4-4--7-7-7-7-7-7-|
E|--2-2-2-2-2-2--5-5-5-5-5-5-|


End on Dmaj7

That’s pretty much the rhythm guitar in this quality song by the one and only Milburn!  
you have any queries please e-mail me.
            
Submit corrections


        Rudiments lessons Hard to play? Try these video lessons and learn fast Rudiments lessons
        
↑ Back to top | Tablatures and chords for acoustic guitar and electric guitar, ukulele, drums are parodies/interpretations of the original songs. You may use it for private study, scholarship, research or language learning purposes only