» » »

Milburn - Rubicon Tabs

Artists:  A B C D E F G H I J K L M N O P Q R S T U V W X Y Z # 

Rubicon Tabs

(ver. 2) Click to play this song!
Milburn
 Rating:
1.8/5 (29 votes)

 Rubicon lessons Tabs too difficult? Try these video lessons and learn fast
 
                Tuning:Standard

Intro
e|---------7------7---------7------7---10/12--10--7--10---5------------------|
B|------8-----10---------8-----10-------------------------------8-----10-----|
G|---9----------------8--------------------------------------------9---------|
D|---------------------------------------------------------------------------|
A|---------------------------------------------------------------------------|
E|---------------------------------------------------------------------------|


Verse:
Phrase 1
e|---------7------7---------7------7---10/12--10--7--10---5------------------|
B|------8-----10---------8-----10--------------------------------------------|
G|---9----------------8------------------------------------------------------|
D|---------------------------------------------------------------------------|
A|---------------------------------------------------------------------------|
E|---------------------------------------------------------------------------|

Phrase 2
e|---------7------7----------------------------------------------------------|
B|------8-----10------10------------------8-----8---7------------------------|
G|---9--------------------9--6--9------9-----9---------8---------------------|
D|---------------------------------10---------------------9------------------|
A|---------------------------------------------------------------------------|
E|---------------------------------------------------------------------------|
After this, repeat phrase 1 again.


Phrase 3
e|---------7------7----------------------------------------------------------|
B|------8-----10------10------------------8-----8---7------------------------|
G|---9--------------------9--6--9------9-----9-------------------------------|
D|---------------------------------10----------------------------------------|
A|---------------------------------------------------------------------------|
E|---------------------------------------------------------------------------|


Chords. 
Em, C, D. 
            
Submit corrections


        Rubicon lessons Hard to play? Try these video lessons and learn fast Rubicon lessons
        
↑ Back to top | Tablatures and chords for acoustic guitar and electric guitar, ukulele, drums are parodies/interpretations of the original songs. You may use it for private study, scholarship, research or language learning purposes only