» » »

Milburn - Lucy Lovemenot Tabs

Artists:  A B C D E F G H I J K L M N O P Q R S T U V W X Y Z # 

Lucy Lovemenot Tabs

(ver. 1) Click to play this song!
Milburn
 Rating:
4/5 (5 votes)

 Lucy Lovemenot lessons Tabs too difficult? Try these video lessons and learn fast
 
                -------------------------------------------------------------------------------
               Lucy Lovemenot – Milburn
-------------------------------------------------------------------------------

Intro
  Am
e|------------------------------------------|
B|------------------------------------------|
G|--------9-7---------10-9-7----7-----------|
D|-7-9-10-----10-9-10--------10---10-9------|
A|-------------------------------------10---|
E|------------------------------------------|
                    F            G                      Am
e|---8-7-8---88-7-8------------------------------|-------------|
B|------------------------10-----------12--------|------13-----|
G|-9-------9-----------10----10--10s12----12-----|-x2---14-----|
D|------------------10-----------10s12-------12--|------14-----|
A|-----------------------------------------------|------12-----|
E|-----------------------------------------------|-------------|

Verse
  F        G           Am
e|----------------------------|
B|---------------12----13-----|
G|----10---10s12-------14-----| x4 (no Am last time)
D|-10------10s12-------14-----|
A|---------------------12-----|
E|----------------------------|

Chorus
  F          Em      Am
e|----------------------------------------|
B|----10-------8--------------------------|
G|---------------------------9-7----------| x2
D|-10----10--9---9----7-9-10-----10-9-7---|
A|----------------------------------------|
E|----------------------------------------|

Verse 2
   Am     F       G           Am     F       G
e|-----------------------------------------------------|
B|-13-------------------12----13-------------------12--|
G|-14--------10---10s12-------14--------10---10s12-----| 
D|-14-----10------10s12-------14-----10------10s12-----|
A|-12-------------------------12-----------------------|
E|-----------------------------------------------------|

   Am               F             G
e|---8-7-8---88-7-8------------------------------|
B|------------------------10-----------12--------|
G|-9-------9-----------10----10--10s12----12-----| x2
D|------------------10-----------10s12-------12--|
A|-----------------------------------------------|
E|-----------------------------------------------|

Chorus 2
  F          Em       Am
e|----------------------------------------|
B|----10-------8--------------------------|
G|---------------------------9-7----------| x2
D|-10----10--9---9----7-9-10-----10-9-7---|
A|----------------------------------------|
E|----------------------------------------|

  F           G        Am    G     F                      G
e|------------------------12----10----8----------------------------------|
B|----10--------12-------------------------------10-13-10-------15-12----|
G|---------------------14----12----10---10-10--10----------10s12------12-|
D|-10----10--12----12----------------------------------------------------|
A|-----------------------------------------------------------------------|
E|-----------------------------------------------------------------------|

Solo
   Am           F      G        Am            F      G       C
e|--------------------------------------------------------------------------|
B|---------------8----------------------------8-----------------------------|
G|-9-9-7-9-9-9-7---9-9-7-9------9-9-7-9-9-9-7---9-9-7-9-7----------------9--|
D|-------------------------7---------------------------------10-10-10h12----|
A|--------------------------------------------------------------------------|
E|--------------------------------------------------------------------------|
                       F              G                  C
e|------------------------------------------------------------------------|
B|----------------------------------------------------------13-------13---|
G|-------12-------12---14-12-------12-14p12----------12--14----12h14------|
D|-12s14----12h14------------12h14----------14-12h14----------------------|
A|------------------------------------------------------------------------|
E|------------------------------------------------------------------------|

                F         G           Am
e|----------------------------------------------------------------------------|
B|-15-13--------------13--------15--------------------------------------------|
G|-------14-12-----14--------16--------------9-7---------10-9-7----7----------|
D|--------------15--------17----------7-9-10-----10-9-10--------10---10-9-----|
A|------------------------------------------------------------------------10--|
E|----------------------------------------------------------------------------|

Verse 3
   Am           F      G       Am          F      G
e|-12-----------8------10------12----------8------10-------|
B|-13-----------10-----12------13----------10-----12-------|
G|-14-----------10-----12------14----------10-----12-------|
D|-14-----------10-----12------14----------10-----12-------|
A|-12-----------8------10------12----------8------10-------|
E|---------------------------------------------------------|
  Am                F            G
e|---8-7-8---88-7-8------------------------------|
B|------------------------10-----------12--------|
G|-9-------9-----------10----10--10s12----12-----| x2
D|------------------10-----------10s12-------12--|
A|-----------------------------------------------|
E|-----------------------------------------------|

Chorus 3
   F         Em       Am
e|----------------------------------------|
B|----10-------8--------------------------|
G|---------------------------9-7----------| x2
D|-10----10--9---9----7-9-10-----10-9-7---|
A|----------------------------------------|
E|----------------------------------------|
  F          G         Am    G     F                       G
e|------------------------12----10----8-----------------------------------|
B|----10--------12--------------------------------10-13-10-------15-12----|
G|---------------------14----12----10---10-10--10----------10s12-------12-|
D|-10----10--12----12-----------------------------------------------------|
A|------------------------------------------------------------------------|
E|------------------------------------------------------------------------|

End on Am.

This is my attempt at this great tune. Hope it helps.

| s  slide
| h  hammer-on
| p  pull-off
            
Submit corrections


        Lucy Lovemenot lessons Hard to play? Try these video lessons and learn fast Lucy Lovemenot lessons
        
↑ Back to top | Tablatures and chords for acoustic guitar and electric guitar, ukulele, drums are parodies/interpretations of the original songs. You may use it for private study, scholarship, research or language learning purposes only