» » »

Milburn - 17 Tabs

Artists:  A B C D E F G H I J K L M N O P Q R S T U V W X Y Z # 

17 Tabs

(ver. 1) Click to play this song!
Milburn
 Rating:
3.4/5 (5 votes)

 17 lessons Tabs too difficult? Try these video lessons and learn fast
 
                Milburn - 17
Standard Tuning

Nowhere near perfect

1st Verse

|------------------------|
|------------------------|
|-------9--------9-------|
|-7-----9--9--7--9--9----|
|-7-----7--9--7--7--9----|
|-5--------7--5-----7----| x3

Pre Chorus

|-------------------------------------|
|-------------------------------------|
|----------9-9-9-9--------------------|
|--7-7-7-7-9-9-9-9-9-9-9-9-9-9-9-9----|
|--7-7-7-7-7-7-7-7-9-9-9-9-9-9-9-9----|
|--5-5-5-5---------7-7-7-7-7-7-7-7----| 

|------------------------------------|
|------------------------------------|
|----------9-9-9-9-------------------|
|--7-7-7-7-9-9-9-9-99999999999999----|
|--7-7-7-7-7-7-7-7-99999999999999----|
|--5-5-5-5---------77777777777777----|

Chorus 

|------------------------------------|
|------------------------------------|
|----------9999999-------------------|
|--7777777-9999999-99999999999999----|
|--7777777-7777777-99999999999999----|
|--5555555---------77777777777777----| x4

Riff 1 (Guitar 2 continue chorus chords)

|-----------------------------------------------|
|-----------------------------------------------|
|--10-10-12-12-14-14----------------------------|
|--------------------14-14-12-12-12-12-12-12----|
|-----------------------------------------------|
|-----------------------------------------------|

|-----------------------------------------------|
|-----------------------------------------------|
|-----------------------------------------------|
|-----------------------------------------------|
|--14-14-14-14-14-14-14-12-12-12-12-12-12-12----|
|-----------------------------------------------| x2

|-----------------------------------------------------|
|-----------------------------------------------------|
|--10-10-12-12-14-14-------------------------12-10----|
|--------------------14-14-12-12-12-12-12-12----------|
|-----------------------------------------------------|
|-----------------------------------------------------|

Chorus Outro Thing (Guitar 2 chorus chords cont.)

G|--14-14-14-14-12-12-12-12-10-10-10-10-8-8-8-8--|
D|-----------------------------------------------|

G|--10-10-10-10-10-10-10-10-10-10-10-10-10-10----|
D|-----------------------------------------------|

G|--14-14-14-14-12-12-12-12-10-10-10-10-8-8-8-8--|
D|-----------------------------------------------|

G|--10-10-10-10-10-10-10-8-8-8-8-8-8-8-----------|
D|-----------------------------------------------|

Verse 2 (Listen to song for pattern)

|------------------------------------|
|------------------------------------|
|----------9999999-------------------|
|--7777777-9999999-99999999999999----|
|--7777777-7777777-99999999999999----|
|--5555555---------77777777777777----| x3

|-----------------------|
|-----------------------|
|----------9999999------|
|--7777777-9999999-9----|
|--7777777-7777777-9----|
|--5555555---------7----|

Chorus x4

Lead Part (Starts 3rd time through chorus chords)

G|--16-16-16-16-16-16-16-14-14-14-14-14-14-14----|
D|-----------------------------------------------|

G|--12-12-12-12-12-12-12-10-10-10-10-10-10-10----|
D|-----------------------------------------------|

G|--16-16-16-16-16-16-16-18-18-18-18-18-18-18----|
D|-----------------------------------------------|

G|--14-14-14-14-14-14-14-14-14-14-14-14-14-14----|
D|-----------------------------------------------|

Riff 1 x3, Play 4th time through but ending is

G|--10-12-12-10-8----|
D|-------------------|
            
Submit corrections


        17 lessons Hard to play? Try these video lessons and learn fast 17 lessons
        
↑ Back to top | Tablatures and chords for acoustic guitar and electric guitar, ukulele, drums are parodies/interpretations of the original songs. You may use it for private study, scholarship, research or language learning purposes only