» » »

Mike Posner - Song About You Acoustic Tabs

Artists:  A B C D E F G H I J K L M N O P Q R S T U V W X Y Z # 

Song About You Acoustic Tabs

(ver. 1) Click to play this song!
Mike Posner
 Rating:
4.3/5 (24 votes)

 Song About You Acoustic lessons Tabs too difficult? Try these video lessons and learn fast
 
                [Intro]

e|-0----------------3-|-2--0--2--3--2--0-------------|
B|-1-----0--1--3/5----|-3-----------------3----------|
G|-2---2--------------|-2----------------------------|
D|-2------------------|-0--------0--0--0-------------|
A|-0---0-0--0---------|------------------------------|
E|--------------------|------------------------------|

e|-0--0--------3-|-2--3--5br--3--2-------------------|
B|-1--1--1--3----|-3---------------------------------|
G|-2--2----------|-2---------------------------------|
D|-2--2----------|-0--0------------------------------|
A|-0--0--0--0----|-----------------------------------|
E|---------------|-----------------------------------|




[Chorus - Same as Intro] X2

e|-0----------------3-|-2--0--2--3--2--0-------------|
B|-1-----0--1--3/5----|-3-----------------3----------|
G|-2---2--------------|-2----------------------------|
D|-2------------------|-0--------0--0--0-------------|
A|-0---0-0--0---------|------------------------------|
E|--------------------|------------------------------|

e|-0--0--------3-|-2--3--5br--3--2-------------------|
B|-1--1--1--3----|-3---------------------------------|
G|-2--2----------|-2---------------------------------|
D|-2--2----------|-0--0------------------------------|
A|-0--0--0--0----|-----------------------------------|
E|---------------|-----------------------------------|



[Verse 1]

e|----0-----0-----0-----0-|----0--2--3--2--0---------|
B|-1-----0----------------|-------------------3------|
G|-------------2-----0----|--------------------------|
D|------------------------|-4--0------0--0--0--------|
A|-0-----0-----0-----0----|-0------------------------|
E|------------------------|--------------------------|

e|----0-----0-----0-----0-|----3--5br--3--2----------|
B|-1-----0----------------|--------------------------|
G|-------------2-----0----|--------------------------|
D|------------------------|-4--0---------------------|
A|-0-----0-----0-----0----|-0------------------------|
E|------------------------|--------------------------|

e|-0----------------3-|-2--0--2--3--2--0-------------|
B|-1-----0--1--3/5----|-3-----------------3----------|
G|-2---2--------------|-2----------------------------|
D|-2------------------|-0--------0--0--0-------------|
A|-0---0-0--0---------|------------------------------|
E|--------------------|------------------------------|

e|-0--0--------3-|-2--3--5br--3--2-------------------|
B|-1--1--1--3----|-3---------------------------------|
G|-2--2----------|-2---------------------------------|
D|-2--2----------|-0--0------------------------------|
A|-0--0--0--0----|-----------------------------------|
E|---------------|-----------------------------------|



[Pre-Chorus 1 - No Guitar]



[Chorus - Same as Intro] X2

e|-0----------------3-|-2--0--2--3--2--0-------------|
B|-1-----0--1--3/5----|-3-----------------3----------|
G|-2---2--------------|-2----------------------------|
D|-2------------------|-0--------0--0--0-------------|
A|-0---0-0--0---------|------------------------------|
E|--------------------|------------------------------|

e|-0--0--------3-|-2--3--5br--3--2-------------------|
B|-1--1--1--3----|-3---------------------------------|
G|-2--2----------|-2---------------------------------|
D|-2--2----------|-0--0------------------------------|
A|-0--0--0--0----|-----------------------------------|
E|---------------|-----------------------------------|



[Verse 2]

e|----0-----0-----0-----0-|----0--2--3--2--0---------|
B|-1-----0----------------|-------------------3------|
G|-------------2-----0----|--------------------------|
D|------------------------|-4--0------0--0--0--------|
A|-0-----0-----0-----0----|-0------------------------|
E|------------------------|--------------------------|

e|----0-----0-----0-----0-|----3--5br--3--2----------|
B|-1-----0----------------|--------------------------|
G|-------------2-----0----|--------------------------|
D|------------------------|-4--0---------------------|
A|-0-----0-----0-----0----|-0------------------------|
E|------------------------|--------------------------|

e|-0----------------3-|-2--0--2--3--2--0-------------|
B|-1-----0--1--3/5----|-3-----------------3----------|
G|-2---2--------------|-2----------------------------|
D|-2------------------|-0--------0--0--0-------------|
A|-0---0-0--0---------|------------------------------|
E|--------------------|------------------------------|

e|-0--0--------3-|-2--3--5br--3--2-------------------|
B|-1--1--1--3----|-3---------------------------------|
G|-2--2----------|-2---------------------------------|
D|-2--2----------|-0--0------------------------------|
A|-0--0--0--0----|-----------------------------------|
E|---------------|-----------------------------------|




[Pre-Chorus 2] - Almost the same as the first part of 
 the verse section, slightly different in the middle

e|----0-----0-----0-----0-|-2--------0--2--3--2--0---|
B|-1-----0----------------|----3--------------------3|
G|-------------2-----0----|-------2------------------|
D|------------------------|----------0-----0--0------|
A|-0-----0-----0-----0----|--------------------------|
E|------------------------|--------------------------|

e|----0-----0-----0-----0-|-2---------3--------------|
B|-1-----0----------------|----3---------------------|
G|-------------2-----0----|-------2------------------|
D|------------------------|--------------------------|
A|-0-----0-----0-----0----|--------------------------|
E|------------------------|--------------------------|



[Chorus - Same as Intro] X2

e|-0----------------3-|-2--0--2--3--2--0-------------|
B|-1-----0--1--3/5----|-3-----------------3----------|
G|-2---2--------------|-2----------------------------|
D|-2------------------|-0--------0--0--0-------------|
A|-0---0-0--0---------|------------------------------|
E|--------------------|------------------------------|

e|-0--0--------3-|-2--3--5br--3--2-------------------|
B|-1--1--1--3----|-3---------------------------------|
G|-2--2----------|-2---------------------------------|
D|-2--2----------|-0--0------------------------------|
A|-0--0--0--0----|-----------------------------------|
E|---------------|-----------------------------------|



[Verse 3] X2

e|-0----------------3-|-2--0--2--3--2--0-------------|
B|-1-----0--1--3/5----|-3-----------------3----------|
G|-2---2--------------|-2----------------------------|
D|-2------------------|-0--------0--0--0-------------|
A|-0---0-0--0---------|------------------------------|
E|--------------------|------------------------------|

e|-0--0--------3-|-2--3--5br--3--2-------------------|
B|-1--1--1--3----|-3---------------------------------|
G|-2--2----------|-2---------------------------------|
D|-2--2----------|-0--0------------------------------|
A|-0--0--0--0----|-----------------------------------|
E|---------------|-----------------------------------|



[Little Riff Between Verse 3 and Final Chorus]

e|-0h3p0---------------------------------------------|
B|--------1------------------------------------------|
G|---------------------------------------------------|
D|---------------------------------------------------|
A|---------------------------------------------------|
E|---------------------------------------------------|



[Chorus - Same as Intro]X2

e|-0----------------3-|-2--0--2--3--2--0-------------|
B|-1-----0--1--3/5----|-3-----------------3----------|
G|-2---2--------------|-2----------------------------|
D|-2------------------|-0--------0--0--0-------------|
A|-0---0-0--0---------|------------------------------|
E|--------------------|------------------------------|

e|-0--0--------3-|-2--3--5br--3--2-------------------|
B|-1--1--1--3----|-3---------------------------------|
G|-2--2----------|-2---------------------------------|
D|-2--2----------|-0--0------------------------------|
A|-0--0--0--0----|-----------------------------------|
E|---------------|-----------------------------------|

            
Submit corrections


        Song About You Acoustic lessons Hard to play? Try these video lessons and learn fast Song About You Acoustic lessons
        
↑ Back to top | Tablatures and chords for acoustic guitar and electric guitar, ukulele, drums are parodies/interpretations of the original songs. You may use it for private study, scholarship, research or language learning purposes only