» » »

Mike Posner - Move On Bass

Artists:  A B C D E F G H I J K L M N O P Q R S T U V W X Y Z # 

Move On Bass

(ver. 1) Click to play this song!
Mike Posner
 Rating:
4.3/5 (15 votes)

 Move On lessons Tabs too difficult? Try these video lessons and learn fast
 
                [Intro]

no bass


[Verse]

first time: no bass

Second time: its a sorta palm muted variation of the chorus 
of which i cannot hear properly (room for creative expression).


[Chorus]

G|---7-------7----------|----------------------|
D|-----x-5h7---x-7h9p7--|---7-------7----7-----|
A|-5--------------------|-----x-5h7---x----7---|
E|----------------------|-5--------------------|

G|----------------------|---------------------|
D|---9-------9---9------|---5-----5-----5-----|
A|-----x-7h9---x---9----|---------------------|
E|-7-----------------7--|-3---x-3---x-3-------|

The G ending to the chorus alternates throughout the song between just the
octaves and this:

G|---------------------|
D|---5-----5-----------|
A|-----------------3---|
E|-3---x-3---x-3h5-----|

            
Submit corrections


        Move On lessons Hard to play? Try these video lessons and learn fast Move On lessons
        
↑ Back to top | Tablatures and chords for acoustic guitar and electric guitar, ukulele, drums are parodies/interpretations of the original songs. You may use it for private study, scholarship, research or language learning purposes only