» » »

Mike Posner - I Took A Pill In Ibiza Tabs

Artists:  A B C D E F G H I J K L M N O P Q R S T U V W X Y Z # 

I Took A Pill In Ibiza Tabs

(ver. 1) Click to play this song!
Mike Posner
 Rating:
4.3/5 (13 votes)

 I Took A Pill In Ibiza  lessons Tabs too difficult? Try these video lessons and learn fast
 
                [Verse]

e|---------------------------------------------------------------------------|
B|---0-0-0--------------------0-------------------------0-0-0----------------|
G|---------2p0--0-0-------------0--0h2-2-2--0-0h2--------------2-----2p0-0-0-|
D|-2------------------------2------0-----0----0----0-0-----------------------|
A|----------------------------------------------------------3-----3------3-3-|
E|--------------0-0--0-0-0---------------------------------------------------|

e|---------------------------------------------------------------------------|
B|----------------------------0-0-0-----------------------0-------------0----|
G|----------------------------------2p0-0-2/4\2-------------0--0h2-2-2-------|
D|-2---2p0-0--0-----------------------------------------2------0-----0-------|
A|---3-----3----2---2p0------------------------------------------------------|
E|------------3---3-----3-3-------------0--------0-0-0-----------------------|

e|---------------------------------------------------------------------------|
B|-----------0-0-------------------------------------------------------------|
G|---2-----------2---2p0-0-0-------------------------------------------------|
D|-0---0-0---0---------------2---2p0--0--0-----------------------------------|
A|-------------3---3-----3-3---3------3----2---2p0---------------------------|
E|---------------------------------------3---3-----3-3-----------------------|

[Chorus]

                           o                o           o
e|---------------------------------------------------------------------------|
B|-0-0-0----------------------0-0----0---------------------0-0---0-----------|
G|-------2p0---------------------------0-------------------------------------|
D|------------/5--5-----5------------------/7--7-----7--------------7\-------|
A|------------/7--7--x--7----------x-------/5-----x--5---------x-------------|
E|-------------0-----x--0----------x--------------x------------x-------------|

                  o               o                  o
e|---------------------------------------------------------------------------|
B|-----------------------------0----------(0)--(0)--------0--(0)-------------|
G|-0-0-0-----2-2-----0--0h2----------2p0--(0)--(0)------0----(0)--2p0--------|
D|-2--------------------------------------(0)--(0)-----------(0)-------------|
A|-3------x------------------x-------------x----x-------------x--------------|
E|--------x------------------x----3--------x----x----3--------x--------------|

                           o                o           o
e|---------------------------------------------------------------------------|
B|-0-0-0----------------------0-0----0---------------------0-0---0-----------|
G|-------2p0---------------------------0-------------------------------------|
D|------------/5--5-----5------------------/7--7-----7--------------7\-------|
A|------------/7--7--x--7----------x-------/5-----x--5---------x-------------|
E|-------------0-----x--0----------x--------------x------------x-------------|

                  o               o              o   
e|---------------------------------------------------------------------------|
B|-----------------------(0)------------------0-----------(0)----------------|
G|-0-0-0-----2-2-----0---(0)------0-0-0-----2-2-----2p0---(0)----------------|
D|-2---------------------(0)------------------------------(0)----------------|
A|-3------x---------------x---0----------x-----------------x--x--------------|
E|--------x---------------x-------3------x-----------------x--x--------------|

   o           o            o             o              o             o
e|---------------------------------------------------------------------------|
B|------0---0---------0--------------------------0-------------------------0-|
G|-0-0--0---0------0--0-2-2------2-2---2------2--0--2-2-----0-0--0---0-----0-|
D|-2-2--2---2------2--0-----0--0-0-0---0--0-0-0--0---------------2---2---2---|
A|-2-2--x-x------2----x------------x-x-----------x-------3-------x-x---3-----|
E|-0----x-x----0------x------------x-x-----------x---------------x-x---------|

           o             o
e|---------------------------------------------------------------------------|
B|--0---------------------------0--------------------------------------------|
G|--0-2-0---------0---0------0--0--2-----------------------------------------|
D|--0---------(0)-0---0------0--0--------------------------------------------|
A|--x---------(0)-x-x------2----x--------------------------------------------|
E|--x------3------x-x----3------x--------------------------------------------|

[Breakdown]


e|---------------------------------------------------------------------------|
B|---------------------------------------------------------------------------|
G|---------------------------------------------------------------------------|
D|-----<12>--------<19>--------<19>--------<22>------------------------------|
A|-----<12>-----5--<19>-----5--<19>-----5--<22>------------------------------|
E|-----<12>--3-----<19>--3-----<19>--3-----<22>------------------------------|

    o            o                 o              o         o         o
e|--------------------------------------------------3/5/7--------------------|
B|---------------------------------------------0--3---5----------------------|
G|----------4-4--7-7-7/9-----9-9\-----2-2--(2)------------------------7-7-9--|
D|-/7-7----------------------------0-------(0)----0---------7-7---9-9--------|
A|----------x-------------x-----------------x---------x-----------x----------|
E|--0----0--x-0-----------x-----------------x---------x-----8---8-x-8--------|

         o         o                o           o
e|---------------------------------------------------------------------------|
B|---------------------------------------------------------------------------|
G|---9\--0h2--2-2--2h3p2--2-2--0-----------4-4--7-7-7/9-----9-9\---2-2--(2)--|
D|------------0-0--0------0-0--0---/7-7--------------------------0-------0---|
A|-x------------x-----------x--------------x-------------x---------------x---|
E|-x-----3------x--3--------x-------0---0--x-0-----------x---------------x---|

      o         o         o           o         o               o
e|------3/5/7----------------------------------------------------------------|
B|-0--3---5------------------------------------------------------------------|
G|------------------------7-7-9----9\-0h2--2-2--2h3p2--2-2--0---------4-4----|
D|----0---------7-7---9-9------------------0-0--0------0-0--0--/7-7----------|
A|--------x-----------x----------x-----------x-----------x------------x------|
E|--------x-----8---8-x-8--------x----3------x--3--------x------0---0-x-0----|

   o                             o                     o             o
e|---------------------------------3-2---------------------------------------|
B|----------------------------0--3-----3------------------------0--0-3-3-3/5-|
G|-7-7-7/9---9-9\----2-2--(2)--------------------------0h2-2----0------------|
D|----------------0-------(0)----0--------/5p4--4h5h7------------------------|
A|---------x---------------x---------------------------3-----3--x--3---------|
E|---------x---------------x------------------------------------x------------|
   
       o         o
e|---------------------------------------------------------------------------|
B|---5-----------------------------------------------------------------------|
G|-----0h2--2-2--2h3p2--2-2--0-----------------------------------------------|
D|----------0-0--0------0-0--0-----------------------------------------------|
A|-x----------x-----------x--------------------------------------------------|
E|-x---3------x--3--------x--------------------------------------------------|

[Verse]

e|---------------------------------------------------------------------------|
B|---------------0------------------------0-0-0------------------------------|
G|--4--------------0-0h2-2-2--0-0h2-------------2---2p0--0-0-----------------|
D|--2----------2-----0-----0----0----0-0---------------------2---2p0-0-0-----|
A|--------------------------------------------3---3------3-3---3-----3---2---|
E|--0-0-0-0-0----------------------------------------------------------3---3-|

e|---------------------------------------------------------------------------|
B|----------0-0-0-------------------------0---------------------------0---0--|
G|----------------2p0-0-2/4\2p0-------------0--0h2-2-2--2/4-2-----2-2--------|
D|--------------------------------------2------0-----0--------0-0-0----------|
A|-2p0--------------------------------------------------------------3---3----|
E|-----3-3------------0----------0-0-0---------------------------------------|

e|---------------------------------------------------------------------------|
B|---------------------------------------------------------------------------|
G|--2-2p0-2p0-0--------------------------------------------------------------|
D|-----------------2p0--2p0-2-0----------------------------------------------|
A|----3---3------3------3---------2p0----------------------------------------|
E|--------------------------3---3-----3-3------------------------------------|

[Chorus]

                           o                o           o
e|---------------------------------------------------------------------------|
B|-0-0-0----------------------0-0----0---------------------0-0---0-----------|
G|-------2p0---------------------------0-------------------------------------|
D|------------/5--5-----5------------------/7--7-----7--------------7\-------|
A|------------/7--7--x--7----------x-------/5-----x--5---------x-------------|
E|-------------0-----x--0----------x--------------x------------x-------------|

                  o               o                  o
e|---------------------------------------------------------------------------|
B|-----------------------------0----------(0)--(0)--------0--(0)-------------|
G|-0-0-0-----2-2-----0--0h2----------2p0--(0)--(0)------0----(0)--2p0--------|
D|-2--------------------------------------(0)--(0)-----------(0)-------------|
A|-3------x------------------x-------------x----x-------------x--------------|
E|--------x------------------x----3--------x----x----3--------x--------------|

                           o                o           o
e|---------------------------------------------------------------------------|
B|-0-0-0----------------------0-0----0---------------------0-0---0-----------|
G|-------2p0---------------------------0-------------------------------------|
D|------------/5--5-----5------------------/7--7-----7--------------7\-------|
A|------------/7--7--x--7----------x-------/5-----x--5---------x-------------|
E|-------------0-----x--0----------x--------------x------------x-------------|

                  o               o              o   
e|---------------------------------------------------------------------------|
B|-----------------------(0)------------------0-----------(0)----------------|
G|-0-0-0-----2-2-----0---(0)------0-0-0-----2-2-----2p0---(0)----------------|
D|-2---------------------(0)------------------------------(0)----------------|
A|-3------x---------------x---0----------x-----------------x--x--------------|
E|--------x---------------x-------3------x-----------------x--x--------------|

   o           o            o             o              o             o
e|---------------------------------------------------------------------------|
B|------0---0---------0--------------------------0-------------------------0-|
G|-0-0--0---0------0--0-2-2------2-2---2------2--0--2-2-----0-0--0---0-----0-|
D|-2-2--2---2------2--0-----0--0-0-0---0--0-0-0--0---------------2---2---2---|
A|-2-2--x-x------2----x------------x-x-----------x-------3-------x-x---3-----|
E|-0----x-x----0------x------------x-x-----------x---------------x-x---------|

           o             o
e|---------------------------------------------------------------------------|
B|--0---------------------------0--------------------------------------------|
G|--0-2-0---------0---0------0--0--2-----------------------------------------|
D|--0---------(0)-0---0------0--0--------------------------------------------|
A|--x---------(0)-x-x------2----x--------------------------------------------|
E|--x------3------x-x----3------x--------------------------------------------|

[Breakdown]

        t   t  t    t   t  t    t   t  t    t
e|---------------------------------------------------------------------------|
B|---------------------------------------------------------------------------|
G|---------------------------------------------------------------------------|
D|-----<12>--------<19>--------<19>--------<22>------------------------------|
A|-----<12>-----5--<19>-----5--<19>-----5--<22>------------------------------|
E|-----<12>--3-----<19>--3-----<19>--3-----<22>------------------------------|

    o            o                 o              o         o         o
e|--------------------------------------------------3/5/7--------------------|
B|---------------------------------------------0--3---5----------------------|
G|----------4-4--7-7-7/9-----9-9\-----2-2--(2)------------------------7-7-9--|
D|-/7-7----------------------------0-------(0)----0---------7-7---9-9--------|
A|----------x-------------x-----------------x---------x-----------x----------|
E|--0----0--x-0-----------x-----------------x---------x-----8---8-x-8--------|

         o         o                o           o
e|---------------------------------------------------------------------------|
B|---------------------------------------------------------------------------|
G|---9\--0h2--2-2--2h3p2--2-2--0-----------4-4--7-7-7/9-----9-9\---2-2--(2)--|
D|------------0-0--0------0-0--0---/7-7--------------------------0-------0---|
A|-x------------x-----------x--------------x-------------x---------------x---|
E|-x-----3------x--3--------x-------0---0--x-0-----------x---------------x---|

      o         o         o           o         o               o
e|------3/5/7----------------------------------------------------------------|
B|-0--3---5------------------------------------------------------------------|
G|------------------------7-7-9----9\-0h2--2-2--2h3p2--2-2--0---------4-4----|
D|----0---------7-7---9-9------------------0-0--0------0-0--0--/7-7----------|
A|--------x-----------x----------x-----------x-----------x------------x------|
E|--------x-----8---8-x-8--------x----3------x--3--------x------0---0-x-0----|

   o                             o                     o             o
e|---------------------------------3-2---------------------------------------|
B|----------------------------0--3-----3------------------------0--0-3-3-3/5-|
G|-7-7-7/9---9-9\----2-2--(2)--------------------------0h2-2----0------------|
D|----------------0-------(0)----0--------/5p4--4h5h7------------------------|
A|---------x---------------x---------------------------3-----3--x--3---------|
E|---------x---------------x------------------------------------x------------|
   
       o         o
e|---------------------------------------------------------------------------|
B|---5-----------------------------------------------------------------------|
G|-----0h2--2-2--2h3p2--2-2--0-----------------------------------------------|
D|----------0-0--0------0-0--0-----------------------------------------------|
A|-x----------x-----------x--------------------------------------------------|
E|-x---3------x--3--------x--------------------------------------------------|

[Verse]

e|---------------------------------------------------------------------------|
B|--------------------------------------------------------0---0--------------|
G|-----------------------------------------------0-2-0------0------0-2-------|
D|----9----9--9-7-7-----9--7--9--9-7-7----9-7-9------------------------------|
A|-10---10-------------------------------------------------------------------|
E|--0-0--0-0--0-----10-10-10-10---------8-8-8-8---------3-3-3-3--------------|

[Chorus]

   o          o                       o           o           o
e|---------------------------------------------------------------------------|
B|---0-----------0--0--------0-----------0-0-----------0---------0--0--------|
G|-0-------0--------0-2-2----------2-------0-2-2------------2-------0-2------|
D|-2-------2--------0------0-------0-------0---------------------------------|
A|-2----x--2--------x-----------x----------x---------3----x-3-------x--------|
E|-0----x--0--------x-----------x----------x--------------x---------x--------|

               o
e|---------------------------------------------------------------------------|
B|-----0---------0--(0)-(0)--------------------------------------------------|
G|-0---------0------(0)-(0)--------------------------------------------------|
D|-0---------0------(0)-(0)--------------------------------------------------|
A|--------x----------x-------------------------------------------------------|
E|---3----x--3-------x-------------------------------------------------------|

[Breakdown]

    o            o                 o              o         o         o
e|--------------------------------------------------3/5/7--------------------|
B|---------------------------------------------0--3---5----------------------|
G|----------4-4--7-7-7/9-----9-9\-----2-2--(2)------------------------7-7-9--|
D|-/7-7----------------------------0-------(0)----0---------7-7---9-9--------|
A|----------x-------------x-----------------x---------x-----------x----------|
E|--0----0--x-0-----------x-----------------x---------x-----8---8-x-8--------|

         o         o                o           o
e|---------------------------------------------------------------------------|
B|---------------------------------------------------------------------------|
G|---9\--0h2--2-2--2h3p2--2-2--0-----------4-4--7-7-7/9-----9-9\---2-2--(2)--|
D|------------0-0--0------0-0--0---/7-7--------------------------0-------0---|
A|-x------------x-----------x--------------x-------------x---------------x---|
E|-x-----3------x--3--------x-------0---0--x-0-----------x---------------x---|

      o         o         o           o         o               o
e|------3/5/7----------------------------------------------------------------|
B|-0--3---5------------------------------------------------------------------|
G|------------------------7-7-9----9\-0h2--2-2--2h3p2--2-2--0---------4-4----|
D|----0---------7-7---9-9------------------0-0--0------0-0--0--/7-7----------|
A|--------x-----------x----------x-----------x-----------x------------x------|
E|--------x-----8---8-x-8--------x----3------x--3--------x------0---0-x-0----|

   o                             o                     o             o
e|---------------------------------3-2---------------------------------------|
B|----------------------------0--3-----3------------------------0--0-3-3-3/5-|
G|-7-7-7/9---9-9\----2-2--(2)--------------------------0h2-2----0------------|
D|----------------0-------(0)----0--------/5p4--4h5h7------------------------|
A|---------x---------------x---------------------------3-----3--x--3---------|
E|---------x---------------x------------------------------------x------------|
   
       o         o
e|---------------------------------------------------------------------------|
B|---5-----------------------------------------------------------------------|
G|-----0h2--2-2--2h3p2--2-2--0-----------------------------------------------|
D|----------0-0--0------0-0--2-----------------------------------------------|
A|-x----------x-----------x--2-----------------------------------------------|
E|-x---3------x--3--------x--0----------------------------------------------|            
Submit corrections


        I Took A Pill In Ibiza  lessons Hard to play? Try these video lessons and learn fast I Took A Pill In Ibiza  lessons
        
↑ Back to top | Tablatures and chords for acoustic guitar and electric guitar, ukulele, drums are parodies/interpretations of the original songs. You may use it for private study, scholarship, research or language learning purposes only